  0
SECTION
  2
HEADER
  9
$ACADVER
  1
AC1015
  9
$ACADMAINTVER
 70
    18
  9
$DWGCODEPAGE
  3
ANSI_1252
  9
$INSBASE
 10
0.0
 20
0.0
 30
0.0
  9
$EXTMIN
 10
-10.45898340928715
 20
-106.7343744327481
 30
-0.0015258207003583
  9
$EXTMAX
 10
27.03186087197617
 20
1.509109844580621
 30
0.0000000349246037
  9
$LIMMIN
 10
0.0
 20
0.0
  9
$LIMMAX
 10
420.0
 20
297.0
  9
$ORTHOMODE
 70
     0
  9
$REGENMODE
 70
     1
  9
$FILLMODE
 70
     1
  9
$QTEXTMODE
 70
     0
  9
$MIRRTEXT
 70
     0
  9
$LTSCALE
 40
1.0
  9
$ATTMODE
 70
     1
  9
$TEXTSIZE
 40
2.5
  9
$TRACEWID
 40
1.0
  9
$TEXTSTYLE
  7
Standard
  9
$CLAYER
  8
0
  9
$CELTYPE
  6
ByLayer
  9
$CECOLOR
 62
   256
  9
$CELTSCALE
 40
1.0
  9
$DISPSILH
 70
     0
  9
$DIMSCALE
 40
1.0
  9
$DIMASZ
 40
2.5
  9
$DIMEXO
 40
0.625
  9
$DIMDLI
 40
3.75
  9
$DIMRND
 40
0.0
  9
$DIMDLE
 40
0.0
  9
$DIMEXE
 40
1.25
  9
$DIMTP
 40
0.0
  9
$DIMTM
 40
0.0
  9
$DIMTXT
 40
2.5
  9
$DIMCEN
 40
2.5
  9
$DIMTSZ
 40
0.0
  9
$DIMTOL
 70
     0
  9
$DIMLIM
 70
     0
  9
$DIMTIH
 70
     0
  9
$DIMTOH
 70
     0
  9
$DIMSE1
 70
     0
  9
$DIMSE2
 70
     0
  9
$DIMTAD
 70
     1
  9
$DIMZIN
 70
     8
  9
$DIMBLK
  1

  9
$DIMASO
 70
     1
  9
$DIMSHO
 70
     1
  9
$DIMPOST
  1

  9
$DIMAPOST
  1

  9
$DIMALT
 70
     0
  9
$DIMALTD
 70
     3
  9
$DIMALTF
 40
0.03937007874016
  9
$DIMLFAC
 40
1.0
  9
$DIMTOFL
 70
     1
  9
$DIMTVP
 40
0.0
  9
$DIMTIX
 70
     0
  9
$DIMSOXD
 70
     0
  9
$DIMSAH
 70
     0
  9
$DIMBLK1
  1

  9
$DIMBLK2
  1

  9
$DIMSTYLE
  2
ISO-25
  9
$DIMCLRD
 70
     0
  9
$DIMCLRE
 70
     0
  9
$DIMCLRT
 70
     0
  9
$DIMTFAC
 40
1.0
  9
$DIMGAP
 40
0.625
  9
$DIMJUST
 70
     0
  9
$DIMSD1
 70
     0
  9
$DIMSD2
 70
     0
  9
$DIMTOLJ
 70
     0
  9
$DIMTZIN
 70
     8
  9
$DIMALTZ
 70
     0
  9
$DIMALTTZ
 70
     0
  9
$DIMUPT
 70
     0
  9
$DIMDEC
 70
     2
  9
$DIMTDEC
 70
     2
  9
$DIMALTU
 70
     2
  9
$DIMALTTD
 70
     3
  9
$DIMTXSTY
  7
Standard
  9
$DIMAUNIT
 70
     0
  9
$DIMADEC
 70
     0
  9
$DIMALTRND
 40
0.0
  9
$DIMAZIN
 70
     0
  9
$DIMDSEP
 70
    44
  9
$DIMATFIT
 70
     3
  9
$DIMFRAC
 70
     0
  9
$DIMLDRBLK
  1

  9
$DIMLUNIT
 70
     2
  9
$DIMLWD
 70
    -2
  9
$DIMLWE
 70
    -2
  9
$DIMTMOVE
 70
     0
  9
$LUNITS
 70
     2
  9
$LUPREC
 70
     4
  9
$SKETCHINC
 40
1.0
  9
$FILLETRAD
 40
0.0
  9
$AUNITS
 70
     0
  9
$AUPREC
 70
     0
  9
$MENU
  1
.
  9
$ELEVATION
 40
0.0
  9
$PELEVATION
 40
0.0
  9
$THICKNESS
 40
0.0
  9
$LIMCHECK
 70
     0
  9
$CHAMFERA
 40
0.0
  9
$CHAMFERB
 40
0.0
  9
$CHAMFERC
 40
0.0
  9
$CHAMFERD
 40
0.0
  9
$SKPOLY
 70
     0
  9
$TDCREATE
 40
2460131.529421297
  9
$TDUCREATE
 40
2460131.237754630
  9
$TDUPDATE
 40
2460131.555648148
  9
$TDUUPDATE
 40
2460131.263981482
  9
$TDINDWG
 40
0.0011226852
  9
$TDUSRTIMER
 40
0.0011226852
  9
$USRTIMER
 70
     1
  9
$ANGBASE
 50
0.0
  9
$ANGDIR
 70
     0
  9
$PDMODE
 70
     0
  9
$PDSIZE
 40
0.0
  9
$PLINEWID
 40
0.0
  9
$SPLFRAME
 70
     0
  9
$SPLINETYPE
 70
     6
  9
$SPLINESEGS
 70
     8
  9
$HANDSEED
  5
F1E
  9
$SURFTAB1
 70
     6
  9
$SURFTAB2
 70
     6
  9
$SURFTYPE
 70
     6
  9
$SURFU
 70
     6
  9
$SURFV
 70
     6
  9
$UCSBASE
  2

  9
$UCSNAME
  2

  9
$UCSORG
 10
0.0
 20
0.0
 30
0.0
  9
$UCSXDIR
 10
1.0
 20
0.0
 30
0.0
  9
$UCSYDIR
 10
0.0
 20
1.0
 30
0.0
  9
$UCSORTHOREF
  2

  9
$UCSORTHOVIEW
 70
     0
  9
$UCSORGTOP
 10
0.0
 20
0.0
 30
0.0
  9
$UCSORGBOTTOM
 10
0.0
 20
0.0
 30
0.0
  9
$UCSORGLEFT
 10
0.0
 20
0.0
 30
0.0
  9
$UCSORGRIGHT
 10
0.0
 20
0.0
 30
0.0
  9
$UCSORGFRONT
 10
0.0
 20
0.0
 30
0.0
  9
$UCSORGBACK
 10
0.0
 20
0.0
 30
0.0
  9
$PUCSBASE
  2

  9
$PUCSNAME
  2

  9
$PUCSORG
 10
0.0
 20
0.0
 30
0.0
  9
$PUCSXDIR
 10
1.0
 20
0.0
 30
0.0
  9
$PUCSYDIR
 10
0.0
 20
1.0
 30
0.0
  9
$PUCSORTHOREF
  2

  9
$PUCSORTHOVIEW
 70
     0
  9
$PUCSORGTOP
 10
0.0
 20
0.0
 30
0.0
  9
$PUCSORGBOTTOM
 10
0.0
 20
0.0
 30
0.0
  9
$PUCSORGLEFT
 10
0.0
 20
0.0
 30
0.0
  9
$PUCSORGRIGHT
 10
0.0
 20
0.0
 30
0.0
  9
$PUCSORGFRONT
 10
0.0
 20
0.0
 30
0.0
  9
$PUCSORGBACK
 10
0.0
 20
0.0
 30
0.0
  9
$USERI1
 70
     0
  9
$USERI2
 70
     0
  9
$USERI3
 70
     0
  9
$USERI4
 70
     0
  9
$USERI5
 70
     0
  9
$USERR1
 40
0.0
  9
$USERR2
 40
0.0
  9
$USERR3
 40
0.0
  9
$USERR4
 40
0.0
  9
$USERR5
 40
0.0
  9
$WORLDVIEW
 70
     1
  9
$SHADEDGE
 70
     3
  9
$SHADEDIF
 70
    70
  9
$TILEMODE
 70
     1
  9
$MAXACTVP
 70
    48
  9
$PINSBASE
 10
0.0
 20
0.0
 30
0.0
  9
$PLIMCHECK
 70
     0
  9
$PEXTMIN
 10
0.0
 20
0.0
 30
0.0
  9
$PEXTMAX
 10
0.0
 20
0.0
 30
0.0
  9
$PLIMMIN
 10
0.0
 20
0.0
  9
$PLIMMAX
 10
12.0
 20
9.0
  9
$UNITMODE
 70
     0
  9
$VISRETAIN
 70
     1
  9
$PLINEGEN
 70
     0
  9
$PSLTSCALE
 70
     1
  9
$TREEDEPTH
 70
  3020
  9
$CMLSTYLE
  2
Standard
  9
$CMLJUST
 70
     0
  9
$CMLSCALE
 40
20.0
  9
$PROXYGRAPHICS
 70
     1
  9
$MEASUREMENT
 70
     1
  9
$CELWEIGHT
370
    -1
  9
$ENDCAPS
280
     0
  9
$JOINSTYLE
280
     0
  9
$LWDISPLAY
290
     0
  9
$INSUNITS
 70
     4
  9
$HYPERLINKBASE
  1

  9
$STYLESHEET
  1

  9
$XEDIT
290
     1
  9
$CEPSNTYPE
380
     0
  9
$PSTYLEMODE
290
     1
  9
$FINGERPRINTGUID
  2
{0D7D9762-F56E-A940-B762-8971DE047122}
  9
$VERSIONGUID
  2
{41373ED5-57F4-9D4D-8FDB-1AE99CA380AF}
  9
$EXTNAMES
290
     1
  9
$PSVPSCALE
 40
0.0
  9
$OLESTARTUP
290
     0
  0
ENDSEC
  0
SECTION
  2
CLASSES
  0
CLASS
  1
ACDBDICTIONARYWDFLT
  2
AcDbDictionaryWithDefault
  3
ObjectDBX Classes
 90
        0
280
     0
281
     0
  0
CLASS
  1
ACDBPLACEHOLDER
  2
AcDbPlaceHolder
  3
ObjectDBX Classes
 90
        0
280
     0
281
     0
  0
CLASS
  1
LAYOUT
  2
AcDbLayout
  3
ObjectDBX Classes
 90
        0
280
     0
281
     0
  0
CLASS
  1
DICTIONARYVAR
  2
AcDbDictionaryVar
  3
ObjectDBX Classes
 90
        0
280
     0
281
     0
  0
CLASS
  1
TABLESTYLE
  2
AcDbTableStyle
  3
ObjectDBX Classes
 90
     4095
280
     0
281
     0
  0
CLASS
  1
MATERIAL
  2
AcDbMaterial
  3
ObjectDBX Classes
 90
     1153
280
     0
281
     0
  0
CLASS
  1
VISUALSTYLE
  2
AcDbVisualStyle
  3
ObjectDBX Classes
 90
     4095
280
     0
281
     0
  0
CLASS
  1
SCALE
  2
AcDbScale
  3
ObjectDBX Classes
 90
     1153
280
     0
281
     0
  0
CLASS
  1
MLEADERSTYLE
  2
AcDbMLeaderStyle
  3
ACDB_MLEADERSTYLE_CLASS
 90
     4095
280
     0
281
     0
  0
CLASS
  1
CELLSTYLEMAP
  2
AcDbCellStyleMap
  3
ObjectDBX Classes
 90
     1152
280
     0
281
     0
  0
CLASS
  1
EXACXREFPANELOBJECT
  2
ExAcXREFPanelObject
  3
EXAC_ESW
 90
    33793
280
     0
281
     0
  0
CLASS
  1
NPOCOLLECTION
  2
AcDbImpNonPersistentObjectsCollection
  3
ObjectDBX Classes
 90
    33921
280
     0
281
     0
  0
CLASS
  1
LAYER_INDEX
  2
AcDbLayerIndex
  3
ObjectDBX Classes
 90
    32768
280
     0
281
     0
  0
CLASS
  1
SPATIAL_INDEX
  2
AcDbSpatialIndex
  3
ObjectDBX Classes
 90
    32768
280
     0
281
     0
  0
CLASS
  1
IDBUFFER
  2
AcDbIdBuffer
  3
ObjectDBX Classes
 90
    32768
280
     0
281
     0
  0
CLASS
  1
ACDBSECTIONVIEWSTYLE
  2
AcDbSectionViewStyle
  3
ObjectDBX Classes
 90
     1025
280
     0
281
     0
  0
CLASS
  1
ACDBDETAILVIEWSTYLE
  2
AcDbDetailViewStyle
  3
ObjectDBX Classes
 90
     1025
280
     0
281
     0
  0
CLASS
  1
XRECORD
  2
AcDbXrecord
  3
ObjectDBX Classes
 90
        0
280
     0
281
     0
  0
ENDSEC
  0
SECTION
  2
TABLES
  0
TABLE
  2
VPORT
  5
8
102
{ACAD_XDICTIONARY
360
E2C
102
}
330
0
100
AcDbSymbolTable
 70
     1
  0
VPORT
  5
EA
330
8
100
AcDbSymbolTableRecord
100
AcDbViewportTableRecord
  2
*Active
 70
     0
 10
0.0
 20
0.0
 11
1.0
 21
1.0
 12
8.286438731344503
 22
-52.61263229408377
 13
0.0
 23
0.0
 14
10.0
 24
10.0
 15
10.0
 25
10.0
 16
0.0
 26
0.0
 36
1.0
 17
0.0
 27
0.0
 37
0.0
 40
115.1071361454619
 41
0.9846153846153846
 42
50.0
 43
0.0
 44
0.0
 50
0.0
 51
0.0
 71
     0
 72
  1000
 73
     1
 74
     3
 75
     0
 76
     1
 77
     0
 78
     0
281
     0
 65
     1
110
0.0
120
0.0
130
0.0
111
1.0
121
0.0
131
0.0
112
0.0
122
1.0
132
0.0
 79
     0
146
0.0
1001
ACAD_NAV_VCDISPLAY
1070
     3
  0
ENDTAB
  0
TABLE
  2
LTYPE
  5
5
330
0
100
AcDbSymbolTable
 70
     1
  0
LTYPE
  5
14
330
5
100
AcDbSymbolTableRecord
100
AcDbLinetypeTableRecord
  2
ByBlock
 70
     0
  3

 72
    65
 73
     0
 40
0.0
  0
LTYPE
  5
15
330
5
100
AcDbSymbolTableRecord
100
AcDbLinetypeTableRecord
  2
ByLayer
 70
     0
  3

 72
    65
 73
     0
 40
0.0
  0
LTYPE
  5
16
330
5
100
AcDbSymbolTableRecord
100
AcDbLinetypeTableRecord
  2
Continuous
 70
     0
  3
Solid line
 72
    65
 73
     0
 40
0.0
  0
ENDTAB
  0
TABLE
  2
LAYER
  5
2
102
{ACAD_XDICTIONARY
360
1FF
102
}
330
0
100
AcDbSymbolTable
 70
     1
  0
LAYER
  5
10
102
{ACAD_XDICTIONARY
360
13C
102
}
330
2
100
AcDbSymbolTableRecord
100
AcDbLayerTableRecord
  2
0
 70
     0
 62
     7
  6
Continuous
370
    -3
390
F
  0
ENDTAB
  0
TABLE
  2
STYLE
  5
3
330
0
100
AcDbSymbolTable
 70
     1
  0
STYLE
  5
11
330
3
100
AcDbSymbolTableRecord
100
AcDbTextStyleTableRecord
  2
Standard
 70
     0
 40
0.0
 41
1.0
 50
0.0
 71
     0
 42
2.5
  3
arial.ttf
  4

1001
ACAD
1000
Arial
1071
       34
  0
ENDTAB
  0
TABLE
  2
VIEW
  5
6
330
0
100
AcDbSymbolTable
 70
     0
  0
ENDTAB
  0
TABLE
  2
UCS
  5
7
330
0
100
AcDbSymbolTable
 70
     0
  0
ENDTAB
  0
TABLE
  2
APPID
  5
9
330
0
100
AcDbSymbolTable
 70
     8
  0
APPID
  5
12
330
9
100
AcDbSymbolTableRecord
100
AcDbRegAppTableRecord
  2
ACAD
 70
     0
  0
APPID
  5
9E
330
9
100
AcDbSymbolTableRecord
100
AcDbRegAppTableRecord
  2
ACAD_PSEXT
 70
     0
  0
APPID
  5
133
330
9
100
AcDbSymbolTableRecord
100
AcDbRegAppTableRecord
  2
AcadAnnoPO
 70
     0
  0
APPID
  5
134
330
9
100
AcDbSymbolTableRecord
100
AcDbRegAppTableRecord
  2
AcadAnnotative
 70
     0
  0
APPID
  5
135
330
9
100
AcDbSymbolTableRecord
100
AcDbRegAppTableRecord
  2
ACAD_DSTYLE_DIMJAG
 70
     0
  0
APPID
  5
136
330
9
100
AcDbSymbolTableRecord
100
AcDbRegAppTableRecord
  2
ACAD_DSTYLE_DIMTALN
 70
     0
  0
APPID
  5
165
330
9
100
AcDbSymbolTableRecord
100
AcDbRegAppTableRecord
  2
ACAD_MLEADERVER
 70
     0
  0
APPID
  5
217
330
9
100
AcDbSymbolTableRecord
100
AcDbRegAppTableRecord
  2
ACAD_NAV_VCDISPLAY
 70
     0
  0
ENDTAB
  0
TABLE
  2
DIMSTYLE
  5
A
330
0
100
AcDbSymbolTable
 70
     1
100
AcDbDimStyleTable
 71
     0
  0
DIMSTYLE
105
27
330
A
100
AcDbSymbolTableRecord
100
AcDbDimStyleTableRecord
  2
ISO-25
 70
     0
 41
2.5
 42
0.625
 43
3.75
 44
1.25
 73
     0
 74
     0
 77
     1
 78
     8
140
2.5
141
2.5
143
0.03937007874016
147
0.625
171
     3
172
     1
271
     2
272
     2
274
     3
278
    44
283
     0
284
     8
340
11
  0
ENDTAB
  0
TABLE
  2
BLOCK_RECORD
  5
1
330
0
100
AcDbSymbolTable
 70
     4
  0
BLOCK_RECORD
  5
1F
102
{ACAD_XDICTIONARY
360
1CE
102
}
330
1
100
AcDbSymbolTableRecord
100
AcDbBlockTableRecord
  2
*Model_Space
340
22
  0
BLOCK_RECORD
  5
D2
102
{ACAD_XDICTIONARY
360
DDD
102
}
330
1
100
AcDbSymbolTableRecord
100
AcDbBlockTableRecord
  2
*Paper_Space
340
D3
  0
BLOCK_RECORD
  5
D6
102
{ACAD_XDICTIONARY
360
DDF
102
}
330
1
100
AcDbSymbolTableRecord
100
AcDbBlockTableRecord
  2
*Paper_Space0
340
D7
  0
BLOCK_RECORD
  5
A01
330
1
100
AcDbSymbolTableRecord
100
AcDbBlockTableRecord
  2
CNA40x50-Front
340
0
102
{BLKREFS
331
DD6
102
}
  0
BLOCK_RECORD
  5
C98
330
1
100
AcDbSymbolTableRecord
100
AcDbBlockTableRecord
  2
CNA40x50-Top
340
0
102
{BLKREFS
331
DD7
102
}
  0
BLOCK_RECORD
  5
CCD
330
1
100
AcDbSymbolTableRecord
100
AcDbBlockTableRecord
  2
CNA40x50-ISO
340
0
102
{BLKREFS
331
DD8
102
}
  0
ENDTAB
  0
ENDSEC
  0
SECTION
  2
BLOCKS
  0
BLOCK
  5
20
330
1F
100
AcDbEntity
  8
0
100
AcDbBlockBegin
  2
*Model_Space
 70
     0
 10
0.0
 20
0.0
 30
0.0
  3
*Model_Space
  1

  0
ENDBLK
  5
21
330
1F
100
AcDbEntity
  8
0
100
AcDbBlockEnd
  0
BLOCK
  5
D4
330
D2
100
AcDbEntity
 67
     1
  8
0
100
AcDbBlockBegin
  2
*Paper_Space
 70
     0
 10
0.0
 20
0.0
 30
0.0
  3
*Paper_Space
  1

  0
ENDBLK
  5
D5
330
D2
100
AcDbEntity
 67
     1
  8
0
100
AcDbBlockEnd
  0
BLOCK
  5
D8
330
D6
100
AcDbEntity
 67
     1
  8
0
100
AcDbBlockBegin
  2
*Paper_Space0
 70
     0
 10
0.0
 20
0.0
 30
0.0
  3
*Paper_Space0
  1

  0
ENDBLK
  5
D9
330
D6
100
AcDbEntity
 67
     1
  8
0
100
AcDbBlockEnd
  0
BLOCK
  5
A02
330
A01
100
AcDbEntity
  8
0
100
AcDbBlockBegin
  2
CNA40x50-Front
 70
     0
 10
0.0
 20
0.0
 30
0.0
  3
CNA40x50-Front
  1

  0
LINE
  5
A04
330
A01
100
AcDbEntity
  8
0
100
AcDbLine
 10
1.749999999999997
 20
-41.82171769238834
 30
0.0
 11
-1.749999999999997
 21
-41.82171769238834
 31
0.0
  0
LINE
  5
A05
330
A01
100
AcDbEntity
  8
0
100
AcDbLine
 10
-2.075733183164496
 20
-43.07171769238834
 30
0.0
 11
-0.7289250663201164
 21
-43.07171769238834
 31
0.0
  0
LINE
  5
A06
330
A01
100
AcDbEntity
  8
0
100
AcDbLine
 10
0.7289250663201165
 20
-43.07171769238834
 30
0.0
 11
2.075733183164496
 21
-43.07171769238834
 31
0.0
  0
LINE
  5
A07
330
A01
100
AcDbEntity
  8
0
100
AcDbLine
 10
1.749999999999997
 20
-40.57171769238834
 30
0.0
 11
-1.749999999999997
 21
-40.57171769238834
 31
0.0
  0
LINE
  5
A08
330
A01
100
AcDbEntity
  8
0
100
AcDbLine
 10
1.749999999999997
 20
-39.32171769238834
 30
0.0
 11
-1.749999999999997
 21
-39.32171769238834
 31
0.0
  0
LINE
  5
A09
330
A01
100
AcDbEntity
  8
0
100
AcDbLine
 10
1.749999999999997
 20
-38.07171769238834
 30
0.0
 11
-1.749999999999997
 21
-38.07171769238834
 31
0.0
  0
LINE
  5
A0A
330
A01
100
AcDbEntity
  8
0
100
AcDbLine
 10
1.749999999999997
 20
-36.82171769238834
 30
0.0
 11
-1.749999999999997
 21
-36.82171769238834
 31
0.0
  0
LINE
  5
A0B
330
A01
100
AcDbEntity
  8
0
100
AcDbLine
 10
1.749999999999997
 20
-35.57171769238834
 30
0.0
 11
-1.749999999999997
 21
-35.57171769238834
 31
0.0
  0
LINE
  5
A0C
330
A01
100
AcDbEntity
  8
0
100
AcDbLine
 10
1.749999999999997
 20
-34.32171769238834
 30
0.0
 11
-1.749999999999997
 21
-34.32171769238834
 31
0.0
  0
LINE
  5
A0D
330
A01
100
AcDbEntity
  8
0
100
AcDbLine
 10
1.749999999999997
 20
-33.07171769238834
 30
0.0
 11
-1.749999999999997
 21
-33.07171769238834
 31
0.0
  0
LINE
  5
A0E
330
A01
100
AcDbEntity
  8
0
100
AcDbLine
 10
1.749999999999997
 20
-31.82171769238835
 30
0.0
 11
-1.749999999999997
 21
-31.82171769238835
 31
0.0
  0
LINE
  5
A0F
330
A01
100
AcDbEntity
  8
0
100
AcDbLine
 10
1.749999999999997
 20
-30.57171769238835
 30
0.0
 11
-1.749999999999997
 21
-30.57171769238835
 31
0.0
  0
LINE
  5
A10
330
A01
100
AcDbEntity
  8
0
100
AcDbLine
 10
1.749999999999997
 20
-29.32171769238835
 30
0.0
 11
-1.749999999999997
 21
-29.32171769238835
 31
0.0
  0
LINE
  5
A11
330
A01
100
AcDbEntity
  8
0
100
AcDbLine
 10
1.749999999999997
 20
-28.07171769238835
 30
0.0
 11
-1.749999999999997
 21
-28.07171769238835
 31
0.0
  0
LINE
  5
A12
330
A01
100
AcDbEntity
  8
0
100
AcDbLine
 10
1.749999999999997
 20
-26.82171769238835
 30
0.0
 11
-1.749999999999997
 21
-26.82171769238835
 31
0.0
  0
LINE
  5
A13
330
A01
100
AcDbEntity
  8
0
100
AcDbLine
 10
1.749999999999997
 20
-25.57171769238835
 30
0.0
 11
-1.749999999999997
 21
-25.57171769238835
 31
0.0
  0
LINE
  5
A14
330
A01
100
AcDbEntity
  8
0
100
AcDbLine
 10
1.749999999999997
 20
-24.32171769238835
 30
0.0
 11
-1.749999999999997
 21
-24.32171769238835
 31
0.0
  0
LINE
  5
A15
330
A01
100
AcDbEntity
  8
0
100
AcDbLine
 10
1.749999999999997
 20
-23.07171769238834
 30
0.0
 11
-1.749999999999997
 21
-23.07171769238834
 31
0.0
  0
LINE
  5
A16
330
A01
100
AcDbEntity
  8
0
100
AcDbLine
 10
1.749999999999997
 20
-21.82171769238834
 30
0.0
 11
-1.749999999999997
 21
-21.82171769238834
 31
0.0
  0
LINE
  5
A17
330
A01
100
AcDbEntity
  8
0
100
AcDbLine
 10
1.749999999999997
 20
-20.57171769238834
 30
0.0
 11
-1.749999999999997
 21
-20.57171769238834
 31
0.0
  0
LINE
  5
A18
330
A01
100
AcDbEntity
  8
0
100
AcDbLine
 10
1.749999999999997
 20
-19.32171769238834
 30
0.0
 11
-1.749999999999997
 21
-19.32171769238834
 31
0.0
  0
LINE
  5
A19
330
A01
100
AcDbEntity
  8
0
100
AcDbLine
 10
1.749999999999997
 20
-18.07171769238834
 30
0.0
 11
-1.749999999999997
 21
-18.07171769238834
 31
0.0
  0
LINE
  5
A1A
330
A01
100
AcDbEntity
  8
0
100
AcDbLine
 10
1.749999999999997
 20
-16.82171769238834
 30
0.0
 11
-1.749999999999997
 21
-16.82171769238834
 31
0.0
  0
LINE
  5
A1B
330
A01
100
AcDbEntity
  8
0
100
AcDbLine
 10
1.749999999999997
 20
-15.57171769238834
 30
0.0
 11
-1.749999999999997
 21
-15.57171769238834
 31
0.0
  0
LINE
  5
A1C
330
A01
100
AcDbEntity
  8
0
100
AcDbLine
 10
1.749999999999997
 20
-14.32171769238834
 30
0.0
 11
-1.749999999999997
 21
-14.32171769238834
 31
0.0
  0
LINE
  5
A1D
330
A01
100
AcDbEntity
  8
0
100
AcDbLine
 10
1.749999999999997
 20
-13.07171769238834
 30
0.0
 11
-1.749999999999997
 21
-13.07171769238834
 31
0.0
  0
LINE
  5
A1E
330
A01
100
AcDbEntity
  8
0
100
AcDbLine
 10
1.749999999999997
 20
-11.82171769238834
 30
0.0
 11
-1.749999999999997
 21
-11.82171769238834
 31
0.0
  0
LINE
  5
A1F
330
A01
100
AcDbEntity
  8
0
100
AcDbLine
 10
1.749999999999997
 20
-10.57171769238834
 30
0.0
 11
-1.749999999999997
 21
-10.57171769238834
 31
0.0
  0
LINE
  5
A20
330
A01
100
AcDbEntity
  8
0
100
AcDbLine
 10
1.749999999999997
 20
-9.321717692388343
 30
0.0
 11
-1.749999999999997
 21
-9.321717692388343
 31
0.0
  0
LINE
  5
A21
330
A01
100
AcDbEntity
  8
0
100
AcDbLine
 10
1.749999999999998
 20
-8.071717692388343
 30
0.0
 11
-1.749999999999998
 21
-8.071717692388343
 31
0.0
  0
LINE
  5
A22
330
A01
100
AcDbEntity
  8
0
100
AcDbLine
 10
1.749999999999998
 20
-41.82171769238834
 30
0.0
 11
2.126524613390191
 21
-41.92529961895551
 31
0.0
  0
LINE
  5
A23
330
A01
100
AcDbEntity
  8
0
100
AcDbLine
 10
-1.749999999999998
 20
-41.82171769238834
 30
0.0
 11
-2.126524613390191
 21
-41.92529961895551
 31
0.0
  0
ARC
  5
A24
330
A01
100
AcDbEntity
  8
0
100
AcDbCircle
 10
2.099999999999997
 20
-42.02171769238834
 30
0.0
 40
0.1
100
AcDbArc
 50
336.3812630634754
 51
74.61842137712777
  0
ARC
  5
A25
330
A01
100
AcDbEntity
  8
0
100
AcDbCircle
 10
-2.099999999999997
 20
-42.02171769238834
 30
0.0
 40
0.1
100
AcDbArc
 50
105.3815786228722
 51
203.6187369365246
  0
LINE
  5
A26
330
A01
100
AcDbEntity
  8
0
100
AcDbLine
 10
-1.749999999999994
 20
-43.07171769238834
 30
0.0
 11
-2.191623175793059
 21
-42.06178256050984
 31
0.0
  0
LINE
  5
A27
330
A01
100
AcDbEntity
  8
0
100
AcDbLine
 10
1.749999999999994
 20
-43.07171769238834
 30
0.0
 11
2.191623175793059
 21
-42.06178256050984
 31
0.0
  0
LINE
  5
A28
330
A01
100
AcDbEntity
  8
0
100
AcDbLine
 10
1.749999999999998
 20
-40.57171769238834
 30
0.0
 11
2.126524613390191
 21
-40.67529961895551
 31
0.0
  0
LINE
  5
A29
330
A01
100
AcDbEntity
  8
0
100
AcDbLine
 10
-1.749999999999998
 20
-40.57171769238834
 30
0.0
 11
-2.126524613390191
 21
-40.67529961895551
 31
0.0
  0
ARC
  5
A2A
330
A01
100
AcDbEntity
  8
0
100
AcDbCircle
 10
2.099999999999997
 20
-40.77171769238834
 30
0.0
 40
0.1
100
AcDbArc
 50
336.3812630634754
 51
74.61842137712777
  0
ARC
  5
A2B
330
A01
100
AcDbEntity
  8
0
100
AcDbCircle
 10
-2.099999999999997
 20
-40.77171769238834
 30
0.0
 40
0.1
100
AcDbArc
 50
105.3815786228722
 51
203.6187369365246
  0
LINE
  5
A2C
330
A01
100
AcDbEntity
  8
0
100
AcDbLine
 10
-1.749999999999994
 20
-41.82171769238834
 30
0.0
 11
-2.191623175793059
 21
-40.81178256050984
 31
0.0
  0
LINE
  5
A2D
330
A01
100
AcDbEntity
  8
0
100
AcDbLine
 10
1.749999999999994
 20
-41.82171769238834
 30
0.0
 11
2.191623175793059
 21
-40.81178256050984
 31
0.0
  0
LINE
  5
A2E
330
A01
100
AcDbEntity
  8
0
100
AcDbLine
 10
1.749999999999997
 20
-39.32171769238834
 30
0.0
 11
2.126524613390191
 21
-39.42529961895551
 31
0.0
  0
LINE
  5
A2F
330
A01
100
AcDbEntity
  8
0
100
AcDbLine
 10
-1.749999999999996
 20
-39.32171769238834
 30
0.0
 11
-2.126524613390191
 21
-39.42529961895551
 31
0.0
  0
ARC
  5
A30
330
A01
100
AcDbEntity
  8
0
100
AcDbCircle
 10
2.099999999999997
 20
-39.52171769238834
 30
0.0
 40
0.1
100
AcDbArc
 50
336.3812630634782
 51
74.61842137712777
  0
ARC
  5
A31
330
A01
100
AcDbEntity
  8
0
100
AcDbCircle
 10
-2.099999999999997
 20
-39.52171769238834
 30
0.0
 40
0.1
100
AcDbArc
 50
105.3815786228722
 51
203.6187369365246
  0
LINE
  5
A32
330
A01
100
AcDbEntity
  8
0
100
AcDbLine
 10
-1.749999999999994
 20
-40.57171769238834
 30
0.0
 11
-2.191623175793059
 21
-39.56178256050984
 31
0.0
  0
LINE
  5
A33
330
A01
100
AcDbEntity
  8
0
100
AcDbLine
 10
1.749999999999994
 20
-40.57171769238834
 30
0.0
 11
2.191623175793061
 21
-39.56178256050984
 31
0.0
  0
LINE
  5
A34
330
A01
100
AcDbEntity
  8
0
100
AcDbLine
 10
1.749999999999997
 20
-38.07171769238834
 30
0.0
 11
2.126524613390191
 21
-38.17529961895551
 31
0.0
  0
LINE
  5
A35
330
A01
100
AcDbEntity
  8
0
100
AcDbLine
 10
-1.749999999999996
 20
-38.07171769238834
 30
0.0
 11
-2.126524613390191
 21
-38.17529961895551
 31
0.0
  0
ARC
  5
A36
330
A01
100
AcDbEntity
  8
0
100
AcDbCircle
 10
2.099999999999997
 20
-38.27171769238834
 30
0.0
 40
0.1
100
AcDbArc
 50
336.3812630634782
 51
74.61842137712777
  0
ARC
  5
A37
330
A01
100
AcDbEntity
  8
0
100
AcDbCircle
 10
-2.099999999999997
 20
-38.27171769238834
 30
0.0
 40
0.1
100
AcDbArc
 50
105.3815786228722
 51
203.6187369365246
  0
LINE
  5
A38
330
A01
100
AcDbEntity
  8
0
100
AcDbLine
 10
-1.749999999999997
 20
-39.32171769238834
 30
0.0
 11
-2.191623175793063
 21
-38.31178256050984
 31
0.0
  0
LINE
  5
A39
330
A01
100
AcDbEntity
  8
0
100
AcDbLine
 10
1.749999999999997
 20
-39.32171769238834
 30
0.0
 11
2.191623175793063
 21
-38.31178256050984
 31
0.0
  0
LINE
  5
A3A
330
A01
100
AcDbEntity
  8
0
100
AcDbLine
 10
1.749999999999997
 20
-36.82171769238834
 30
0.0
 11
2.126524613390191
 21
-36.92529961895551
 31
0.0
  0
LINE
  5
A3B
330
A01
100
AcDbEntity
  8
0
100
AcDbLine
 10
-1.749999999999996
 20
-36.82171769238834
 30
0.0
 11
-2.126524613390191
 21
-36.92529961895551
 31
0.0
  0
ARC
  5
A3C
330
A01
100
AcDbEntity
  8
0
100
AcDbCircle
 10
2.099999999999997
 20
-37.02171769238834
 30
0.0
 40
0.1
100
AcDbArc
 50
336.3812630634782
 51
74.61842137712777
  0
ARC
  5
A3D
330
A01
100
AcDbEntity
  8
0
100
AcDbCircle
 10
-2.099999999999997
 20
-37.02171769238834
 30
0.0
 40
0.1
100
AcDbArc
 50
105.3815786228722
 51
203.6187369365246
  0
LINE
  5
A3E
330
A01
100
AcDbEntity
  8
0
100
AcDbLine
 10
-1.749999999999997
 20
-38.07171769238834
 30
0.0
 11
-2.191623175793063
 21
-37.06178256050984
 31
0.0
  0
LINE
  5
A3F
330
A01
100
AcDbEntity
  8
0
100
AcDbLine
 10
1.749999999999997
 20
-38.07171769238834
 30
0.0
 11
2.191623175793063
 21
-37.06178256050984
 31
0.0
  0
LINE
  5
A40
330
A01
100
AcDbEntity
  8
0
100
AcDbLine
 10
1.749999999999997
 20
-35.57171769238834
 30
0.0
 11
2.126524613390191
 21
-35.67529961895551
 31
0.0
  0
LINE
  5
A41
330
A01
100
AcDbEntity
  8
0
100
AcDbLine
 10
-1.749999999999996
 20
-35.57171769238834
 30
0.0
 11
-2.126524613390191
 21
-35.67529961895551
 31
0.0
  0
ARC
  5
A42
330
A01
100
AcDbEntity
  8
0
100
AcDbCircle
 10
2.099999999999997
 20
-35.77171769238834
 30
0.0
 40
0.1
100
AcDbArc
 50
336.3812630634782
 51
74.61842137712777
  0
ARC
  5
A43
330
A01
100
AcDbEntity
  8
0
100
AcDbCircle
 10
-2.099999999999997
 20
-35.77171769238834
 30
0.0
 40
0.1
100
AcDbArc
 50
105.3815786228722
 51
203.6187369365246
  0
LINE
  5
A44
330
A01
100
AcDbEntity
  8
0
100
AcDbLine
 10
-1.749999999999997
 20
-36.82171769238834
 30
0.0
 11
-2.191623175793063
 21
-35.81178256050984
 31
0.0
  0
LINE
  5
A45
330
A01
100
AcDbEntity
  8
0
100
AcDbLine
 10
1.749999999999997
 20
-36.82171769238834
 30
0.0
 11
2.191623175793063
 21
-35.81178256050984
 31
0.0
  0
LINE
  5
A46
330
A01
100
AcDbEntity
  8
0
100
AcDbLine
 10
1.749999999999997
 20
-34.32171769238834
 30
0.0
 11
2.126524613390191
 21
-34.42529961895551
 31
0.0
  0
LINE
  5
A47
330
A01
100
AcDbEntity
  8
0
100
AcDbLine
 10
-1.749999999999996
 20
-34.32171769238834
 30
0.0
 11
-2.126524613390191
 21
-34.42529961895551
 31
0.0
  0
ARC
  5
A48
330
A01
100
AcDbEntity
  8
0
100
AcDbCircle
 10
2.099999999999997
 20
-34.52171769238834
 30
0.0
 40
0.1
100
AcDbArc
 50
336.3812630634782
 51
74.61842137712777
  0
ARC
  5
A49
330
A01
100
AcDbEntity
  8
0
100
AcDbCircle
 10
-2.099999999999997
 20
-34.52171769238834
 30
0.0
 40
0.1
100
AcDbArc
 50
105.3815786228722
 51
203.6187369365246
  0
LINE
  5
A4A
330
A01
100
AcDbEntity
  8
0
100
AcDbLine
 10
-1.749999999999997
 20
-35.57171769238834
 30
0.0
 11
-2.191623175793063
 21
-34.56178256050984
 31
0.0
  0
LINE
  5
A4B
330
A01
100
AcDbEntity
  8
0
100
AcDbLine
 10
1.749999999999997
 20
-35.57171769238834
 30
0.0
 11
2.191623175793063
 21
-34.56178256050984
 31
0.0
  0
LINE
  5
A4C
330
A01
100
AcDbEntity
  8
0
100
AcDbLine
 10
1.749999999999997
 20
-33.07171769238834
 30
0.0
 11
2.126524613390191
 21
-33.17529961895551
 31
0.0
  0
LINE
  5
A4D
330
A01
100
AcDbEntity
  8
0
100
AcDbLine
 10
-1.749999999999996
 20
-33.07171769238834
 30
0.0
 11
-2.126524613390191
 21
-33.17529961895551
 31
0.0
  0
ARC
  5
A4E
330
A01
100
AcDbEntity
  8
0
100
AcDbCircle
 10
2.099999999999997
 20
-33.27171769238834
 30
0.0
 40
0.1
100
AcDbArc
 50
336.3812630634782
 51
74.61842137712777
  0
ARC
  5
A4F
330
A01
100
AcDbEntity
  8
0
100
AcDbCircle
 10
-2.099999999999997
 20
-33.27171769238834
 30
0.0
 40
0.1
100
AcDbArc
 50
105.3815786228722
 51
203.6187369365246
  0
LINE
  5
A50
330
A01
100
AcDbEntity
  8
0
100
AcDbLine
 10
-1.749999999999997
 20
-34.32171769238834
 30
0.0
 11
-2.191623175793063
 21
-33.31178256050984
 31
0.0
  0
LINE
  5
A51
330
A01
100
AcDbEntity
  8
0
100
AcDbLine
 10
1.749999999999997
 20
-34.32171769238834
 30
0.0
 11
2.191623175793063
 21
-33.31178256050984
 31
0.0
  0
LINE
  5
A52
330
A01
100
AcDbEntity
  8
0
100
AcDbLine
 10
1.749999999999997
 20
-31.82171769238835
 30
0.0
 11
2.126524613390191
 21
-31.9252996189555
 31
0.0
  0
LINE
  5
A53
330
A01
100
AcDbEntity
  8
0
100
AcDbLine
 10
-1.749999999999996
 20
-31.82171769238835
 30
0.0
 11
-2.126524613390191
 21
-31.9252996189555
 31
0.0
  0
ARC
  5
A54
330
A01
100
AcDbEntity
  8
0
100
AcDbCircle
 10
2.099999999999997
 20
-32.02171769238834
 30
0.0
 40
0.1
100
AcDbArc
 50
336.3812630634782
 51
74.61842137712777
  0
ARC
  5
A55
330
A01
100
AcDbEntity
  8
0
100
AcDbCircle
 10
-2.099999999999997
 20
-32.02171769238834
 30
0.0
 40
0.1
100
AcDbArc
 50
105.3815786228722
 51
203.6187369365246
  0
LINE
  5
A56
330
A01
100
AcDbEntity
  8
0
100
AcDbLine
 10
-1.749999999999997
 20
-33.07171769238834
 30
0.0
 11
-2.191623175793063
 21
-32.06178256050984
 31
0.0
  0
LINE
  5
A57
330
A01
100
AcDbEntity
  8
0
100
AcDbLine
 10
1.749999999999997
 20
-33.07171769238834
 30
0.0
 11
2.191623175793063
 21
-32.06178256050984
 31
0.0
  0
LINE
  5
A58
330
A01
100
AcDbEntity
  8
0
100
AcDbLine
 10
1.749999999999997
 20
-30.57171769238835
 30
0.0
 11
2.126524613390191
 21
-30.6752996189555
 31
0.0
  0
LINE
  5
A59
330
A01
100
AcDbEntity
  8
0
100
AcDbLine
 10
-1.749999999999996
 20
-30.57171769238835
 30
0.0
 11
-2.126524613390191
 21
-30.6752996189555
 31
0.0
  0
ARC
  5
A5A
330
A01
100
AcDbEntity
  8
0
100
AcDbCircle
 10
2.099999999999997
 20
-30.77171769238834
 30
0.0
 40
0.1
100
AcDbArc
 50
336.3812630634782
 51
74.61842137712777
  0
ARC
  5
A5B
330
A01
100
AcDbEntity
  8
0
100
AcDbCircle
 10
-2.099999999999997
 20
-30.77171769238834
 30
0.0
 40
0.1
100
AcDbArc
 50
105.3815786228722
 51
203.6187369365246
  0
LINE
  5
A5C
330
A01
100
AcDbEntity
  8
0
100
AcDbLine
 10
-1.749999999999997
 20
-31.82171769238835
 30
0.0
 11
-2.191623175793063
 21
-30.81178256050984
 31
0.0
  0
LINE
  5
A5D
330
A01
100
AcDbEntity
  8
0
100
AcDbLine
 10
1.749999999999997
 20
-31.82171769238835
 30
0.0
 11
2.191623175793063
 21
-30.81178256050984
 31
0.0
  0
LINE
  5
A5E
330
A01
100
AcDbEntity
  8
0
100
AcDbLine
 10
1.749999999999997
 20
-29.32171769238835
 30
0.0
 11
2.126524613390191
 21
-29.4252996189555
 31
0.0
  0
LINE
  5
A5F
330
A01
100
AcDbEntity
  8
0
100
AcDbLine
 10
-1.749999999999996
 20
-29.32171769238835
 30
0.0
 11
-2.126524613390191
 21
-29.4252996189555
 31
0.0
  0
ARC
  5
A60
330
A01
100
AcDbEntity
  8
0
100
AcDbCircle
 10
2.099999999999997
 20
-29.52171769238834
 30
0.0
 40
0.1
100
AcDbArc
 50
336.3812630634782
 51
74.61842137712777
  0
ARC
  5
A61
330
A01
100
AcDbEntity
  8
0
100
AcDbCircle
 10
-2.099999999999997
 20
-29.52171769238834
 30
0.0
 40
0.1
100
AcDbArc
 50
105.3815786228722
 51
203.6187369365246
  0
LINE
  5
A62
330
A01
100
AcDbEntity
  8
0
100
AcDbLine
 10
-1.749999999999997
 20
-30.57171769238835
 30
0.0
 11
-2.191623175793063
 21
-29.56178256050984
 31
0.0
  0
LINE
  5
A63
330
A01
100
AcDbEntity
  8
0
100
AcDbLine
 10
1.749999999999997
 20
-30.57171769238835
 30
0.0
 11
2.191623175793063
 21
-29.56178256050984
 31
0.0
  0
LINE
  5
A64
330
A01
100
AcDbEntity
  8
0
100
AcDbLine
 10
1.749999999999997
 20
-28.07171769238835
 30
0.0
 11
2.126524613390191
 21
-28.1752996189555
 31
0.0
  0
LINE
  5
A65
330
A01
100
AcDbEntity
  8
0
100
AcDbLine
 10
-1.749999999999996
 20
-28.07171769238835
 30
0.0
 11
-2.126524613390191
 21
-28.1752996189555
 31
0.0
  0
ARC
  5
A66
330
A01
100
AcDbEntity
  8
0
100
AcDbCircle
 10
2.099999999999997
 20
-28.27171769238834
 30
0.0
 40
0.1
100
AcDbArc
 50
336.3812630634782
 51
74.61842137712777
  0
ARC
  5
A67
330
A01
100
AcDbEntity
  8
0
100
AcDbCircle
 10
-2.099999999999997
 20
-28.27171769238834
 30
0.0
 40
0.1
100
AcDbArc
 50
105.3815786228722
 51
203.6187369365246
  0
LINE
  5
A68
330
A01
100
AcDbEntity
  8
0
100
AcDbLine
 10
-1.749999999999997
 20
-29.32171769238835
 30
0.0
 11
-2.191623175793063
 21
-28.31178256050984
 31
0.0
  0
LINE
  5
A69
330
A01
100
AcDbEntity
  8
0
100
AcDbLine
 10
1.749999999999997
 20
-29.32171769238835
 30
0.0
 11
2.191623175793063
 21
-28.31178256050984
 31
0.0
  0
LINE
  5
A6A
330
A01
100
AcDbEntity
  8
0
100
AcDbLine
 10
1.749999999999997
 20
-26.82171769238835
 30
0.0
 11
2.126524613390191
 21
-26.9252996189555
 31
0.0
  0
LINE
  5
A6B
330
A01
100
AcDbEntity
  8
0
100
AcDbLine
 10
-1.749999999999996
 20
-26.82171769238835
 30
0.0
 11
-2.126524613390191
 21
-26.9252996189555
 31
0.0
  0
ARC
  5
A6C
330
A01
100
AcDbEntity
  8
0
100
AcDbCircle
 10
2.099999999999997
 20
-27.02171769238834
 30
0.0
 40
0.1
100
AcDbArc
 50
336.3812630634782
 51
74.61842137712777
  0
ARC
  5
A6D
330
A01
100
AcDbEntity
  8
0
100
AcDbCircle
 10
-2.099999999999997
 20
-27.02171769238834
 30
0.0
 40
0.1
100
AcDbArc
 50
105.3815786228722
 51
203.6187369365246
  0
LINE
  5
A6E
330
A01
100
AcDbEntity
  8
0
100
AcDbLine
 10
-1.749999999999997
 20
-28.07171769238835
 30
0.0
 11
-2.191623175793063
 21
-27.06178256050984
 31
0.0
  0
LINE
  5
A6F
330
A01
100
AcDbEntity
  8
0
100
AcDbLine
 10
1.749999999999997
 20
-28.07171769238835
 30
0.0
 11
2.191623175793063
 21
-27.06178256050984
 31
0.0
  0
LINE
  5
A70
330
A01
100
AcDbEntity
  8
0
100
AcDbLine
 10
1.749999999999997
 20
-25.57171769238835
 30
0.0
 11
2.126524613390191
 21
-25.6752996189555
 31
0.0
  0
LINE
  5
A71
330
A01
100
AcDbEntity
  8
0
100
AcDbLine
 10
-1.749999999999996
 20
-25.57171769238835
 30
0.0
 11
-2.126524613390191
 21
-25.6752996189555
 31
0.0
  0
ARC
  5
A72
330
A01
100
AcDbEntity
  8
0
100
AcDbCircle
 10
2.099999999999997
 20
-25.77171769238834
 30
0.0
 40
0.1
100
AcDbArc
 50
336.3812630634782
 51
74.61842137712777
  0
ARC
  5
A73
330
A01
100
AcDbEntity
  8
0
100
AcDbCircle
 10
-2.099999999999997
 20
-25.77171769238834
 30
0.0
 40
0.1
100
AcDbArc
 50
105.3815786228722
 51
203.6187369365246
  0
LINE
  5
A74
330
A01
100
AcDbEntity
  8
0
100
AcDbLine
 10
-1.749999999999997
 20
-26.82171769238835
 30
0.0
 11
-2.191623175793063
 21
-25.81178256050984
 31
0.0
  0
LINE
  5
A75
330
A01
100
AcDbEntity
  8
0
100
AcDbLine
 10
1.749999999999997
 20
-26.82171769238835
 30
0.0
 11
2.191623175793063
 21
-25.81178256050984
 31
0.0
  0
LINE
  5
A76
330
A01
100
AcDbEntity
  8
0
100
AcDbLine
 10
1.749999999999997
 20
-24.32171769238835
 30
0.0
 11
2.126524613390191
 21
-24.4252996189555
 31
0.0
  0
LINE
  5
A77
330
A01
100
AcDbEntity
  8
0
100
AcDbLine
 10
-1.749999999999996
 20
-24.32171769238835
 30
0.0
 11
-2.126524613390191
 21
-24.4252996189555
 31
0.0
  0
ARC
  5
A78
330
A01
100
AcDbEntity
  8
0
100
AcDbCircle
 10
2.099999999999997
 20
-24.52171769238834
 30
0.0
 40
0.1
100
AcDbArc
 50
336.3812630634782
 51
74.61842137712777
  0
ARC
  5
A79
330
A01
100
AcDbEntity
  8
0
100
AcDbCircle
 10
-2.099999999999997
 20
-24.52171769238834
 30
0.0
 40
0.1
100
AcDbArc
 50
105.3815786228722
 51
203.6187369365246
  0
LINE
  5
A7A
330
A01
100
AcDbEntity
  8
0
100
AcDbLine
 10
-1.749999999999997
 20
-25.57171769238835
 30
0.0
 11
-2.191623175793063
 21
-24.56178256050984
 31
0.0
  0
LINE
  5
A7B
330
A01
100
AcDbEntity
  8
0
100
AcDbLine
 10
1.749999999999997
 20
-25.57171769238835
 30
0.0
 11
2.191623175793063
 21
-24.56178256050984
 31
0.0
  0
LINE
  5
A7C
330
A01
100
AcDbEntity
  8
0
100
AcDbLine
 10
1.749999999999997
 20
-23.07171769238834
 30
0.0
 11
2.126524613390191
 21
-23.1752996189555
 31
0.0
  0
LINE
  5
A7D
330
A01
100
AcDbEntity
  8
0
100
AcDbLine
 10
-1.749999999999996
 20
-23.07171769238834
 30
0.0
 11
-2.126524613390191
 21
-23.1752996189555
 31
0.0
  0
ARC
  5
A7E
330
A01
100
AcDbEntity
  8
0
100
AcDbCircle
 10
2.099999999999997
 20
-23.27171769238834
 30
0.0
 40
0.1
100
AcDbArc
 50
336.3812630634782
 51
74.61842137712777
  0
ARC
  5
A7F
330
A01
100
AcDbEntity
  8
0
100
AcDbCircle
 10
-2.099999999999997
 20
-23.27171769238834
 30
0.0
 40
0.1
100
AcDbArc
 50
105.3815786228722
 51
203.6187369365246
  0
LINE
  5
A80
330
A01
100
AcDbEntity
  8
0
100
AcDbLine
 10
-1.749999999999997
 20
-24.32171769238835
 30
0.0
 11
-2.191623175793063
 21
-23.31178256050984
 31
0.0
  0
LINE
  5
A81
330
A01
100
AcDbEntity
  8
0
100
AcDbLine
 10
1.749999999999997
 20
-24.32171769238835
 30
0.0
 11
2.191623175793063
 21
-23.31178256050984
 31
0.0
  0
LINE
  5
A82
330
A01
100
AcDbEntity
  8
0
100
AcDbLine
 10
1.749999999999997
 20
-21.82171769238834
 30
0.0
 11
2.126524613390191
 21
-21.9252996189555
 31
0.0
  0
LINE
  5
A83
330
A01
100
AcDbEntity
  8
0
100
AcDbLine
 10
-1.749999999999996
 20
-21.82171769238834
 30
0.0
 11
-2.126524613390191
 21
-21.9252996189555
 31
0.0
  0
ARC
  5
A84
330
A01
100
AcDbEntity
  8
0
100
AcDbCircle
 10
2.099999999999997
 20
-22.02171769238834
 30
0.0
 40
0.1
100
AcDbArc
 50
336.3812630634782
 51
74.61842137712777
  0
ARC
  5
A85
330
A01
100
AcDbEntity
  8
0
100
AcDbCircle
 10
-2.099999999999997
 20
-22.02171769238834
 30
0.0
 40
0.1
100
AcDbArc
 50
105.3815786228722
 51
203.6187369365246
  0
LINE
  5
A86
330
A01
100
AcDbEntity
  8
0
100
AcDbLine
 10
-1.749999999999997
 20
-23.07171769238834
 30
0.0
 11
-2.191623175793063
 21
-22.06178256050984
 31
0.0
  0
LINE
  5
A87
330
A01
100
AcDbEntity
  8
0
100
AcDbLine
 10
1.749999999999997
 20
-23.07171769238834
 30
0.0
 11
2.191623175793063
 21
-22.06178256050984
 31
0.0
  0
LINE
  5
A88
330
A01
100
AcDbEntity
  8
0
100
AcDbLine
 10
1.749999999999997
 20
-20.57171769238834
 30
0.0
 11
2.126524613390191
 21
-20.6752996189555
 31
0.0
  0
LINE
  5
A89
330
A01
100
AcDbEntity
  8
0
100
AcDbLine
 10
-1.749999999999996
 20
-20.57171769238834
 30
0.0
 11
-2.126524613390191
 21
-20.6752996189555
 31
0.0
  0
ARC
  5
A8A
330
A01
100
AcDbEntity
  8
0
100
AcDbCircle
 10
2.099999999999997
 20
-20.77171769238834
 30
0.0
 40
0.1
100
AcDbArc
 50
336.3812630634782
 51
74.61842137712777
  0
ARC
  5
A8B
330
A01
100
AcDbEntity
  8
0
100
AcDbCircle
 10
-2.099999999999997
 20
-20.77171769238834
 30
0.0
 40
0.1
100
AcDbArc
 50
105.3815786228722
 51
203.6187369365246
  0
LINE
  5
A8C
330
A01
100
AcDbEntity
  8
0
100
AcDbLine
 10
-1.749999999999997
 20
-21.82171769238834
 30
0.0
 11
-2.191623175793063
 21
-20.81178256050984
 31
0.0
  0
LINE
  5
A8D
330
A01
100
AcDbEntity
  8
0
100
AcDbLine
 10
1.749999999999997
 20
-21.82171769238834
 30
0.0
 11
2.191623175793063
 21
-20.81178256050984
 31
0.0
  0
LINE
  5
A8E
330
A01
100
AcDbEntity
  8
0
100
AcDbLine
 10
1.749999999999997
 20
-19.32171769238834
 30
0.0
 11
2.126524613390192
 21
-19.4252996189555
 31
0.0
  0
LINE
  5
A8F
330
A01
100
AcDbEntity
  8
0
100
AcDbLine
 10
-1.749999999999997
 20
-19.32171769238834
 30
0.0
 11
-2.126524613390192
 21
-19.4252996189555
 31
0.0
  0
ARC
  5
A90
330
A01
100
AcDbEntity
  8
0
100
AcDbCircle
 10
2.099999999999997
 20
-19.52171769238834
 30
0.0
 40
0.1
100
AcDbArc
 50
336.3812630634782
 51
74.61842137712777
  0
ARC
  5
A91
330
A01
100
AcDbEntity
  8
0
100
AcDbCircle
 10
-2.099999999999997
 20
-19.52171769238834
 30
0.0
 40
0.1
100
AcDbArc
 50
105.3815786228715
 51
203.6187369365218
  0
LINE
  5
A92
330
A01
100
AcDbEntity
  8
0
100
AcDbLine
 10
-1.749999999999997
 20
-20.57171769238834
 30
0.0
 11
-2.191623175793063
 21
-19.56178256050984
 31
0.0
  0
LINE
  5
A93
330
A01
100
AcDbEntity
  8
0
100
AcDbLine
 10
1.749999999999997
 20
-20.57171769238834
 30
0.0
 11
2.191623175793063
 21
-19.56178256050984
 31
0.0
  0
LINE
  5
A94
330
A01
100
AcDbEntity
  8
0
100
AcDbLine
 10
1.749999999999997
 20
-18.07171769238834
 30
0.0
 11
2.126524613390192
 21
-18.1752996189555
 31
0.0
  0
LINE
  5
A95
330
A01
100
AcDbEntity
  8
0
100
AcDbLine
 10
-1.749999999999997
 20
-18.07171769238834
 30
0.0
 11
-2.126524613390192
 21
-18.1752996189555
 31
0.0
  0
ARC
  5
A96
330
A01
100
AcDbEntity
  8
0
100
AcDbCircle
 10
2.099999999999997
 20
-18.27171769238834
 30
0.0
 40
0.1
100
AcDbArc
 50
336.3812630634782
 51
74.61842137712777
  0
ARC
  5
A97
330
A01
100
AcDbEntity
  8
0
100
AcDbCircle
 10
-2.099999999999997
 20
-18.27171769238834
 30
0.0
 40
0.1
100
AcDbArc
 50
105.3815786228715
 51
203.6187369365218
  0
LINE
  5
A98
330
A01
100
AcDbEntity
  8
0
100
AcDbLine
 10
-1.749999999999997
 20
-19.32171769238834
 30
0.0
 11
-2.191623175793063
 21
-18.31178256050984
 31
0.0
  0
LINE
  5
A99
330
A01
100
AcDbEntity
  8
0
100
AcDbLine
 10
1.749999999999997
 20
-19.32171769238834
 30
0.0
 11
2.191623175793063
 21
-18.31178256050984
 31
0.0
  0
LINE
  5
A9A
330
A01
100
AcDbEntity
  8
0
100
AcDbLine
 10
1.749999999999997
 20
-16.82171769238834
 30
0.0
 11
2.126524613390192
 21
-16.9252996189555
 31
0.0
  0
LINE
  5
A9B
330
A01
100
AcDbEntity
  8
0
100
AcDbLine
 10
-1.749999999999997
 20
-16.82171769238834
 30
0.0
 11
-2.126524613390192
 21
-16.9252996189555
 31
0.0
  0
ARC
  5
A9C
330
A01
100
AcDbEntity
  8
0
100
AcDbCircle
 10
2.099999999999997
 20
-17.02171769238834
 30
0.0
 40
0.1
100
AcDbArc
 50
336.3812630634782
 51
74.61842137712777
  0
ARC
  5
A9D
330
A01
100
AcDbEntity
  8
0
100
AcDbCircle
 10
-2.099999999999997
 20
-17.02171769238834
 30
0.0
 40
0.1
100
AcDbArc
 50
105.3815786228715
 51
203.6187369365218
  0
LINE
  5
A9E
330
A01
100
AcDbEntity
  8
0
100
AcDbLine
 10
-1.749999999999997
 20
-18.07171769238834
 30
0.0
 11
-2.191623175793063
 21
-17.06178256050984
 31
0.0
  0
LINE
  5
A9F
330
A01
100
AcDbEntity
  8
0
100
AcDbLine
 10
1.749999999999997
 20
-18.07171769238834
 30
0.0
 11
2.191623175793063
 21
-17.06178256050984
 31
0.0
  0
LINE
  5
AA0
330
A01
100
AcDbEntity
  8
0
100
AcDbLine
 10
1.749999999999997
 20
-15.57171769238834
 30
0.0
 11
2.126524613390192
 21
-15.6752996189555
 31
0.0
  0
LINE
  5
AA1
330
A01
100
AcDbEntity
  8
0
100
AcDbLine
 10
-1.749999999999997
 20
-15.57171769238834
 30
0.0
 11
-2.126524613390192
 21
-15.6752996189555
 31
0.0
  0
ARC
  5
AA2
330
A01
100
AcDbEntity
  8
0
100
AcDbCircle
 10
2.099999999999997
 20
-15.77171769238834
 30
0.0
 40
0.1
100
AcDbArc
 50
336.3812630634782
 51
74.61842137712777
  0
ARC
  5
AA3
330
A01
100
AcDbEntity
  8
0
100
AcDbCircle
 10
-2.099999999999997
 20
-15.77171769238834
 30
0.0
 40
0.1
100
AcDbArc
 50
105.3815786228715
 51
203.6187369365218
  0
LINE
  5
AA4
330
A01
100
AcDbEntity
  8
0
100
AcDbLine
 10
-1.749999999999997
 20
-16.82171769238834
 30
0.0
 11
-2.191623175793063
 21
-15.81178256050984
 31
0.0
  0
LINE
  5
AA5
330
A01
100
AcDbEntity
  8
0
100
AcDbLine
 10
1.749999999999997
 20
-16.82171769238834
 30
0.0
 11
2.191623175793063
 21
-15.81178256050984
 31
0.0
  0
LINE
  5
AA6
330
A01
100
AcDbEntity
  8
0
100
AcDbLine
 10
1.749999999999997
 20
-14.32171769238834
 30
0.0
 11
2.126524613390192
 21
-14.4252996189555
 31
0.0
  0
LINE
  5
AA7
330
A01
100
AcDbEntity
  8
0
100
AcDbLine
 10
-1.749999999999997
 20
-14.32171769238834
 30
0.0
 11
-2.126524613390192
 21
-14.4252996189555
 31
0.0
  0
ARC
  5
AA8
330
A01
100
AcDbEntity
  8
0
100
AcDbCircle
 10
2.099999999999997
 20
-14.52171769238834
 30
0.0
 40
0.1
100
AcDbArc
 50
336.3812630634782
 51
74.61842137712777
  0
ARC
  5
AA9
330
A01
100
AcDbEntity
  8
0
100
AcDbCircle
 10
-2.099999999999997
 20
-14.52171769238834
 30
0.0
 40
0.1
100
AcDbArc
 50
105.3815786228715
 51
203.6187369365218
  0
LINE
  5
AAA
330
A01
100
AcDbEntity
  8
0
100
AcDbLine
 10
-1.749999999999997
 20
-15.57171769238834
 30
0.0
 11
-2.191623175793063
 21
-14.56178256050984
 31
0.0
  0
LINE
  5
AAB
330
A01
100
AcDbEntity
  8
0
100
AcDbLine
 10
1.749999999999997
 20
-15.57171769238834
 30
0.0
 11
2.191623175793063
 21
-14.56178256050984
 31
0.0
  0
LINE
  5
AAC
330
A01
100
AcDbEntity
  8
0
100
AcDbLine
 10
1.749999999999997
 20
-13.07171769238834
 30
0.0
 11
2.126524613390192
 21
-13.1752996189555
 31
0.0
  0
LINE
  5
AAD
330
A01
100
AcDbEntity
  8
0
100
AcDbLine
 10
-1.749999999999997
 20
-13.07171769238834
 30
0.0
 11
-2.126524613390192
 21
-13.1752996189555
 31
0.0
  0
ARC
  5
AAE
330
A01
100
AcDbEntity
  8
0
100
AcDbCircle
 10
2.099999999999997
 20
-13.27171769238834
 30
0.0
 40
0.1
100
AcDbArc
 50
336.3812630634782
 51
74.61842137712777
  0
ARC
  5
AAF
330
A01
100
AcDbEntity
  8
0
100
AcDbCircle
 10
-2.099999999999997
 20
-13.27171769238834
 30
0.0
 40
0.1
100
AcDbArc
 50
105.3815786228715
 51
203.6187369365218
  0
LINE
  5
AB0
330
A01
100
AcDbEntity
  8
0
100
AcDbLine
 10
-1.749999999999997
 20
-14.32171769238834
 30
0.0
 11
-2.191623175793063
 21
-13.31178256050984
 31
0.0
  0
LINE
  5
AB1
330
A01
100
AcDbEntity
  8
0
100
AcDbLine
 10
1.749999999999997
 20
-14.32171769238834
 30
0.0
 11
2.191623175793063
 21
-13.31178256050984
 31
0.0
  0
LINE
  5
AB2
330
A01
100
AcDbEntity
  8
0
100
AcDbLine
 10
1.749999999999997
 20
-11.82171769238834
 30
0.0
 11
2.126524613390192
 21
-11.9252996189555
 31
0.0
  0
LINE
  5
AB3
330
A01
100
AcDbEntity
  8
0
100
AcDbLine
 10
-1.749999999999997
 20
-11.82171769238834
 30
0.0
 11
-2.126524613390192
 21
-11.9252996189555
 31
0.0
  0
ARC
  5
AB4
330
A01
100
AcDbEntity
  8
0
100
AcDbCircle
 10
2.099999999999997
 20
-12.02171769238834
 30
0.0
 40
0.1
100
AcDbArc
 50
336.3812630634782
 51
74.61842137712777
  0
ARC
  5
AB5
330
A01
100
AcDbEntity
  8
0
100
AcDbCircle
 10
-2.099999999999997
 20
-12.02171769238834
 30
0.0
 40
0.1
100
AcDbArc
 50
105.3815786228715
 51
203.6187369365218
  0
LINE
  5
AB6
330
A01
100
AcDbEntity
  8
0
100
AcDbLine
 10
-1.749999999999997
 20
-13.07171769238834
 30
0.0
 11
-2.191623175793063
 21
-12.06178256050984
 31
0.0
  0
LINE
  5
AB7
330
A01
100
AcDbEntity
  8
0
100
AcDbLine
 10
1.749999999999997
 20
-13.07171769238834
 30
0.0
 11
2.191623175793063
 21
-12.06178256050984
 31
0.0
  0
LINE
  5
AB8
330
A01
100
AcDbEntity
  8
0
100
AcDbLine
 10
1.749999999999997
 20
-10.57171769238834
 30
0.0
 11
2.126524613390192
 21
-10.6752996189555
 31
0.0
  0
LINE
  5
AB9
330
A01
100
AcDbEntity
  8
0
100
AcDbLine
 10
-1.749999999999997
 20
-10.57171769238834
 30
0.0
 11
-2.126524613390192
 21
-10.6752996189555
 31
0.0
  0
ARC
  5
ABA
330
A01
100
AcDbEntity
  8
0
100
AcDbCircle
 10
2.099999999999997
 20
-10.77171769238834
 30
0.0
 40
0.1
100
AcDbArc
 50
336.3812630634782
 51
74.61842137712777
  0
ARC
  5
ABB
330
A01
100
AcDbEntity
  8
0
100
AcDbCircle
 10
-2.099999999999997
 20
-10.77171769238834
 30
0.0
 40
0.1
100
AcDbArc
 50
105.3815786228715
 51
203.6187369365218
  0
LINE
  5
ABC
330
A01
100
AcDbEntity
  8
0
100
AcDbLine
 10
-1.749999999999997
 20
-11.82171769238834
 30
0.0
 11
-2.191623175793063
 21
-10.81178256050984
 31
0.0
  0
LINE
  5
ABD
330
A01
100
AcDbEntity
  8
0
100
AcDbLine
 10
1.749999999999997
 20
-11.82171769238834
 30
0.0
 11
2.191623175793063
 21
-10.81178256050984
 31
0.0
  0
LINE
  5
ABE
330
A01
100
AcDbEntity
  8
0
100
AcDbLine
 10
1.749999999999997
 20
-9.321717692388343
 30
0.0
 11
2.126524613390192
 21
-9.425299618955502
 31
0.0
  0
LINE
  5
ABF
330
A01
100
AcDbEntity
  8
0
100
AcDbLine
 10
-1.749999999999997
 20
-9.321717692388343
 30
0.0
 11
-2.126524613390192
 21
-9.425299618955502
 31
0.0
  0
ARC
  5
AC0
330
A01
100
AcDbEntity
  8
0
100
AcDbCircle
 10
2.099999999999997
 20
-9.521717692388342
 30
0.0
 40
0.1
100
AcDbArc
 50
336.3812630634782
 51
74.61842137712825
  0
ARC
  5
AC1
330
A01
100
AcDbEntity
  8
0
100
AcDbCircle
 10
-2.099999999999997
 20
-9.521717692388342
 30
0.0
 40
0.1
100
AcDbArc
 50
105.3815786228715
 51
203.6187369365218
  0
LINE
  5
AC2
330
A01
100
AcDbEntity
  8
0
100
AcDbLine
 10
-1.749999999999997
 20
-10.57171769238834
 30
0.0
 11
-2.191623175793063
 21
-9.56178256050984
 31
0.0
  0
LINE
  5
AC3
330
A01
100
AcDbEntity
  8
0
100
AcDbLine
 10
1.749999999999997
 20
-10.57171769238834
 30
0.0
 11
2.191623175793063
 21
-9.56178256050984
 31
0.0
  0
LINE
  5
AC4
330
A01
100
AcDbEntity
  8
0
100
AcDbLine
 10
1.749999999999998
 20
-8.071717692388343
 30
0.0
 11
2.126524613390192
 21
-8.175299618955502
 31
0.0
  0
LINE
  5
AC5
330
A01
100
AcDbEntity
  8
0
100
AcDbLine
 10
-1.749999999999998
 20
-8.071717692388343
 30
0.0
 11
-2.126524613390192
 21
-8.175299618955502
 31
0.0
  0
ARC
  5
AC6
330
A01
100
AcDbEntity
  8
0
100
AcDbCircle
 10
2.099999999999997
 20
-8.271717692388342
 30
0.0
 40
0.1
100
AcDbArc
 50
336.3812630634782
 51
74.61842137712825
  0
ARC
  5
AC7
330
A01
100
AcDbEntity
  8
0
100
AcDbCircle
 10
-2.099999999999997
 20
-8.271717692388342
 30
0.0
 40
0.1
100
AcDbArc
 50
105.3815786228715
 51
203.6187369365218
  0
LINE
  5
AC8
330
A01
100
AcDbEntity
  8
0
100
AcDbLine
 10
-1.749999999999997
 20
-9.321717692388343
 30
0.0
 11
-2.191623175793063
 21
-8.31178256050984
 31
0.0
  0
LINE
  5
AC9
330
A01
100
AcDbEntity
  8
0
100
AcDbLine
 10
1.749999999999997
 20
-9.321717692388343
 30
0.0
 11
2.191623175793063
 21
-8.31178256050984
 31
0.0
  0
LINE
  5
ACA
330
A01
100
AcDbEntity
  8
0
100
AcDbLine
 10
0.7289250663201164
 20
-43.07171769238834
 30
0.0
 11
-0.7289250663201166
 21
-43.07171769238834
 31
0.0
  0
LINE
  5
ACB
330
A01
100
AcDbEntity
  8
0
100
AcDbLine
 10
1.555634918610403
 20
-44.50067593014825
 30
0.0
 11
0.1000000000000001
 21
-48.50000000000001
 31
0.0
  0
ELLIPSE
  5
ACC
330
A01
100
AcDbEntity
  8
0
100
AcDbEllipse
 10
0.0
 20
-48.77474774194547
 30
0.0
 11
0.0
 21
-6.044450322800173
 31
0.0
210
0.0
220
0.0
230
1.0
 40
0.3639702342662021
 41
3.479305053312819
 42
3.926990816987241
  0
LINE
  5
ACD
330
A01
100
AcDbEntity
  8
0
100
AcDbLine
 10
-1.555634918610404
 20
-44.50067593014825
 30
0.0
 11
-0.1000000000000001
 21
-48.50000000000001
 31
0.0
  0
LINE
  5
ACE
330
A01
100
AcDbEntity
  8
0
100
AcDbLine
 10
0.1000000000000001
 20
-48.50000000000001
 30
0.0
 11
-0.1000000000000001
 21
-48.50000000000001
 31
0.0
  0
ELLIPSE
  5
ACF
330
A01
100
AcDbEntity
  8
0
100
AcDbEllipse
 10
0.0
 20
-48.77474774194547
 30
0.0
 11
0.0
 21
-6.044450322800173
 31
0.0
210
0.0
220
0.0
230
1.0
 40
0.3639702342662021
 41
2.356194490192344
 42
2.803880253866767
  0
LINE
  5
AD0
330
A01
100
AcDbEntity
  8
0
100
AcDbLine
 10
-1.555634918610404
 20
-44.50067593014825
 30
0.0
 11
-2.075733183164496
 21
-43.07171769238834
 31
0.0
  0
LINE
  5
AD1
330
A01
100
AcDbEntity
  8
0
100
AcDbLine
 10
2.075733183164496
 20
-43.07171769238834
 30
0.0
 11
1.555634918610402
 21
-44.50067593014825
 31
0.0
  0
LINE
  5
AD2
330
A01
100
AcDbEntity
  8
0
100
AcDbLine
 10
1.999999999999994
 20
-7.499999999999995
 30
0.0
 11
-1.999999999999985
 21
-7.499999999999995
 31
0.0
  0
LINE
  5
AD3
330
A01
100
AcDbEntity
  8
0
100
AcDbLine
 10
-1.749999999999998
 20
-8.071717692388343
 30
0.0
 11
-1.999999999999993
 21
-7.499999999999999
 31
0.0
  0
LINE
  5
AD4
330
A01
100
AcDbEntity
  8
0
100
AcDbLine
 10
1.749999999999998
 20
-8.071717692388343
 30
0.0
 11
1.999999999999995
 21
-7.499999999999992
 31
0.0
  0
LINE
  5
AD5
330
A01
100
AcDbEntity
  8
0
100
AcDbLine
 10
4.000000000000015
 20
1.500000000000001
 30
0.0
 11
-4.000000000000002
 21
1.500000000000001
 31
0.0
  0
LINE
  5
AD6
330
A01
100
AcDbEntity
  8
0
100
AcDbLine
 10
1.999999999999997
 20
-1.799999999999999
 30
0.0
 11
-1.999999999999986
 21
-1.799999999999999
 31
0.0
  0
LINE
  5
AD7
330
A01
100
AcDbEntity
  8
0
100
AcDbLine
 10
4.000000000000014
 20
0.0
 30
0.0
 11
-4.000000000000003
 21
0.0
 31
0.0
  0
LINE
  5
AD8
330
A01
100
AcDbEntity
  8
0
100
AcDbLine
 10
-1.999999999999985
 20
-7.499999999999995
 30
0.0
 11
-1.999999999999984
 21
-1.800000000000001
 31
0.0
  0
LINE
  5
AD9
330
A01
100
AcDbEntity
  8
0
100
AcDbLine
 10
1.999999999999994
 20
-7.499999999999995
 30
0.0
 11
1.999999999999995
 21
-1.800000000000001
 31
0.0
  0
LINE
  5
ADA
330
A01
100
AcDbEntity
  8
0
100
AcDbLine
 10
-1.999999999999987
 20
-1.799999999999999
 30
0.0
 11
-2.655146421679149
 21
0.0
 31
0.0
  0
LINE
  5
ADB
330
A01
100
AcDbEntity
  8
0
100
AcDbLine
 10
1.999999999999997
 20
-1.799999999999999
 30
0.0
 11
2.655146421679161
 21
0.0
 31
0.0
  0
LINE
  5
ADC
330
A01
100
AcDbEntity
  8
0
100
AcDbLine
 10
-4.000000000000004
 20
0.0
 30
0.0
 11
-4.000000000000004
 21
1.500000000000001
 31
0.0
  0
LINE
  5
ADD
330
A01
100
AcDbEntity
  8
0
100
AcDbLine
 10
4.000000000000015
 20
0.0
 30
0.0
 11
4.000000000000015
 21
1.5
 31
0.0
  0
ENDBLK
  5
A03
330
A01
100
AcDbEntity
  8
0
100
AcDbBlockEnd
  0
BLOCK
  5
C99
330
C98
100
AcDbEntity
  8
0
100
AcDbBlockBegin
  2
CNA40x50-Top
 70
     0
 10
0.0
 20
0.0
 30
0.0
  3
CNA40x50-Top
  1

  0
LINE
  5
C9B
330
C98
100
AcDbEntity
  8
0
100
AcDbLine
 10
-2.2
 20
0.8000000000000001
 30
0.0
 11
0.3175426480542945
 21
0.8000000000000001
 31
0.0
  0
LINE
  5
C9C
330
C98
100
AcDbEntity
  8
0
100
AcDbLine
 10
0.0
 20
0.25
 30
0.0
 11
-2.2
 21
0.25
 31
0.0
  0
LINE
  5
C9D
330
C98
100
AcDbEntity
  8
0
100
AcDbLine
 10
2.2
 20
0.25
 30
0.0
 11
0.288675134594813
 21
0.25
 31
0.0
  0
LINE
  5
C9E
330
C98
100
AcDbEntity
  8
0
100
AcDbLine
 10
2.2
 20
0.8000000000000001
 30
0.0
 11
2.2
 21
0.25
 31
0.0
  0
LINE
  5
C9F
330
C98
100
AcDbEntity
  8
0
100
AcDbLine
 10
0.6062177826491069
 20
0.8000000000000001
 30
0.0
 11
2.2
 21
0.8000000000000001
 31
0.0
  0
LINE
  5
CA0
330
C98
100
AcDbEntity
  8
0
100
AcDbLine
 10
-2.2
 20
0.25
 30
0.0
 11
-2.2
 21
0.8000000000000001
 31
0.0
  0
LINE
  5
CA1
330
C98
100
AcDbEntity
  8
0
100
AcDbLine
 10
0.288675134594813
 20
0.25
 30
0.0
 11
0.0
 21
-0.25
 31
0.0
  0
LINE
  5
CA2
330
C98
100
AcDbEntity
  8
0
100
AcDbLine
 10
1.208253175473055
 20
1.842755888325765
 30
0.0
 11
0.6062177826491069
 21
0.8000000000000001
 31
0.0
  0
LINE
  5
CA3
330
C98
100
AcDbEntity
  8
0
100
AcDbLine
 10
-0.2886751345948127
 20
-0.25
 30
0.0
 11
0.0
 21
0.25
 31
0.0
  0
LINE
  5
CA4
330
C98
100
AcDbEntity
  8
0
100
AcDbLine
 10
-2.2
 20
-0.25
 30
0.0
 11
-0.2886751345948127
 21
-0.25
 31
0.0
  0
LINE
  5
CA5
330
C98
100
AcDbEntity
  8
0
100
AcDbLine
 10
0.0
 20
-0.25
 30
0.0
 11
2.2
 21
-0.25
 31
0.0
  0
LINE
  5
CA6
330
C98
100
AcDbEntity
  8
0
100
AcDbLine
 10
-0.6062177826491069
 20
-0.8000000000000001
 30
0.0
 11
-2.2
 21
-0.8000000000000001
 31
0.0
  0
LINE
  5
CA7
330
C98
100
AcDbEntity
  8
0
100
AcDbLine
 10
2.2
 20
-0.25
 30
0.0
 11
2.2
 21
-0.8000000000000001
 31
0.0
  0
LINE
  5
CA8
330
C98
100
AcDbEntity
  8
0
100
AcDbLine
 10
-2.2
 20
-0.8000000000000001
 30
0.0
 11
-2.2
 21
-0.25
 31
0.0
  0
LINE
  5
CA9
330
C98
100
AcDbEntity
  8
0
100
AcDbLine
 10
2.2
 20
-0.8000000000000001
 30
0.0
 11
-0.3175426480542939
 21
-0.8000000000000001
 31
0.0
  0
LINE
  5
CAA
330
C98
100
AcDbEntity
  8
0
100
AcDbLine
 10
-0.3175426480542939
 20
-0.8000000000000001
 30
0.0
 11
-0.9917468245269454
 21
-1.967755888325765
 31
0.0
  0
LINE
  5
CAB
330
C98
100
AcDbEntity
  8
0
100
AcDbLine
 10
-1.208253175473054
 20
-1.842755888325764
 30
0.0
 11
-0.6062177826491069
 21
-0.8000000000000001
 31
0.0
  0
LINE
  5
CAC
330
C98
100
AcDbEntity
  8
0
100
AcDbLine
 10
-0.9917468245269454
 20
-1.967755888325765
 30
0.0
 11
-1.208253175473054
 21
-1.842755888325764
 31
0.0
  0
LINE
  5
CAD
330
C98
100
AcDbEntity
  8
0
100
AcDbLine
 10
0.9917468245269457
 20
1.967755888325765
 30
0.0
 11
1.208253175473055
 21
1.842755888325765
 31
0.0
  0
LINE
  5
CAE
330
C98
100
AcDbEntity
  8
0
100
AcDbLine
 10
0.3175426480542945
 20
0.8000000000000001
 30
0.0
 11
0.9917468245269457
 21
1.967755888325765
 31
0.0
  0
CIRCLE
  5
CAF
330
C98
100
AcDbEntity
  8
0
100
AcDbCircle
 10
0.0000000000000059
 20
0.0
 30
0.0
 40
4.000000000000008
  0
ENDBLK
  5
C9A
330
C98
100
AcDbEntity
  8
0
100
AcDbBlockEnd
  0
BLOCK
  5
CCE
330
CCD
100
AcDbEntity
  8
0
100
AcDbBlockBegin
  2
CNA40x50-ISO
 70
     0
 10
0.0
 20
0.0
 30
0.0
  3
CNA40x50-ISO
  1

  0
ELLIPSE
  5
CD0
330
CCD
100
AcDbEntity
  8
0
100
AcDbEllipse
 10
-0.0000000000000086
 20
-14.95961985255811
 30
0.0
 11
-1.749999999999997
 21
-0.0000000000000002
 31
0.0
210
0.0
220
0.0
230
1.0
 40
0.5773502691896258
 41
0.3143546097304748
 42
2.827238043859314
  0
ELLIPSE
  5
CD1
330
CCD
100
AcDbEntity
  8
0
100
AcDbEllipse
 10
-0.000000000000009
 20
-15.0441941414461
 30
0.0
 11
-2.126524613390192
 21
0.0
 31
0.0
210
0.0
220
0.0
230
1.0
 40
0.577350269189626
 41
5.956776068670666
 42
9.751187199278298
  0
ELLIPSE
  5
CD2
330
CCD
100
AcDbEntity
  8
0
100
AcDbEllipse
 10
-0.0000000000000092
 20
-15.15563199658018
 30
0.0
 11
-2.191623175793063
 21
0.0
 31
0.0
210
0.0
220
0.0
230
1.0
 40
0.5773502691896257
 41
0.3143546097304772
 42
2.827238043859317
  0
ELLIPSE
  5
CD3
330
CCD
100
AcDbEntity
  8
0
100
AcDbEllipse
 10
-0.0000000000000086
 20
-15.98024057871777
 30
0.0
 11
-1.749999999999997
 21
-0.0000000000000002
 31
0.0
210
0.0
220
0.0
230
1.0
 40
0.5773502691896258
 41
0.3143546097304748
 42
2.827238043859314
  0
ELLIPSE
  5
CD4
330
CCD
100
AcDbEntity
  8
0
100
AcDbEllipse
 10
-0.0000000000000105
 20
-15.98024057871777
 30
0.0
 11
-2.199999999999998
 21
0.0000000000000002
 31
0.0
210
0.0
220
0.0
230
1.0
 40
0.577350269189626
 41
5.946500859423636
 42
6.730871070854009
  0
ELLIPSE
  5
CD5
330
CCD
100
AcDbEntity
  8
0
100
AcDbEllipse
 10
-0.0000000000000087
 20
-15.98024057871777
 30
0.0
 11
-2.200000000000001
 21
0.0000000000001314
 31
0.0
210
0.0
220
0.0
230
1.0
 40
0.5773502691896257
 41
1.123110563120544
 42
2.018482090469387
  0
ELLIPSE
  5
CD6
330
CCD
100
AcDbEntity
  8
0
100
AcDbEllipse
 10
-0.0000000000000088
 20
-15.98024057871777
 30
0.0
 11
2.200000000000001
 21
0.0
 31
0.0
210
0.0
220
0.0
230
1.0
 40
0.5773502691896257
 41
5.835499543505163
 42
6.619869754935534
  0
ELLIPSE
  5
CD7
330
CCD
100
AcDbEntity
  8
0
100
AcDbEllipse
 10
-0.0000000000000086
 20
-13.93899912639845
 30
0.0
 11
-1.749999999999997
 21
-0.0000000000000002
 31
0.0
210
0.0
220
0.0
230
1.0
 40
0.5773502691896258
 41
0.3143546097304748
 42
2.827238043859314
  0
ELLIPSE
  5
CD8
330
CCD
100
AcDbEntity
  8
0
100
AcDbEllipse
 10
-0.000000000000009
 20
-14.02357341528644
 30
0.0
 11
-2.126524613390192
 21
0.0
 31
0.0
210
0.0
220
0.0
230
1.0
 40
0.577350269189626
 41
5.956776068670666
 42
9.751187199278298
  0
ELLIPSE
  5
CD9
330
CCD
100
AcDbEntity
  8
0
100
AcDbEllipse
 10
-0.0000000000000092
 20
-14.13501127042052
 30
0.0
 11
-2.191623175793063
 21
0.0
 31
0.0
210
0.0
220
0.0
230
1.0
 40
0.5773502691896257
 41
0.3143546097304772
 42
2.827238043859317
  0
ELLIPSE
  5
CDA
330
CCD
100
AcDbEntity
  8
0
100
AcDbEllipse
 10
-0.0000000000000086
 20
-12.91837840023879
 30
0.0
 11
-1.749999999999997
 21
-0.0000000000000002
 31
0.0
210
0.0
220
0.0
230
1.0
 40
0.5773502691896258
 41
0.3143546097304748
 42
2.827238043859314
  0
ELLIPSE
  5
CDB
330
CCD
100
AcDbEntity
  8
0
100
AcDbEllipse
 10
-0.000000000000009
 20
-13.00295268912679
 30
0.0
 11
-2.126524613390193
 21
0.0000000000000003
 31
0.0
210
0.0
220
0.0
230
1.0
 40
0.5773502691896258
 41
5.956776068670667
 42
9.751187199278298
  0
ELLIPSE
  5
CDC
330
CCD
100
AcDbEntity
  8
0
100
AcDbEllipse
 10
-0.0000000000000089
 20
-13.11439054426086
 30
0.0
 11
-2.191623175793064
 21
-0.0000000000000001
 31
0.0
210
0.0
220
0.0
230
1.0
 40
0.5773502691896257
 41
0.314354609730466
 42
2.827238043859326
  0
ELLIPSE
  5
CDD
330
CCD
100
AcDbEntity
  8
0
100
AcDbEllipse
 10
-0.0000000000000086
 20
-11.89775767407914
 30
0.0
 11
-1.749999999999997
 21
-0.0000000000000002
 31
0.0
210
0.0
220
0.0
230
1.0
 40
0.5773502691896258
 41
0.3143546097304748
 42
2.827238043859314
  0
ELLIPSE
  5
CDE
330
CCD
100
AcDbEntity
  8
0
100
AcDbEllipse
 10
-0.000000000000009
 20
-11.98233196296713
 30
0.0
 11
-2.126524613390193
 21
0.0000000000000003
 31
0.0
210
0.0
220
0.0
230
1.0
 40
0.5773502691896258
 41
5.956776068670667
 42
9.751187199278298
  0
ELLIPSE
  5
CDF
330
CCD
100
AcDbEntity
  8
0
100
AcDbEllipse
 10
-0.0000000000000089
 20
-12.0937698181012
 30
0.0
 11
-2.191623175793064
 21
-0.0000000000000001
 31
0.0
210
0.0
220
0.0
230
1.0
 40
0.5773502691896257
 41
0.314354609730466
 42
2.827238043859326
  0
ELLIPSE
  5
CE0
330
CCD
100
AcDbEntity
  8
0
100
AcDbEllipse
 10
-0.0000000000000086
 20
-10.87713694791948
 30
0.0
 11
-1.749999999999997
 21
-0.0000000000000002
 31
0.0
210
0.0
220
0.0
230
1.0
 40
0.5773502691896258
 41
0.3143546097304748
 42
2.827238043859314
  0
ELLIPSE
  5
CE1
330
CCD
100
AcDbEntity
  8
0
100
AcDbEllipse
 10
-0.000000000000009
 20
-10.96171123680747
 30
0.0
 11
-2.126524613390193
 21
0.0000000000000003
 31
0.0
210
0.0
220
0.0
230
1.0
 40
0.5773502691896258
 41
5.956776068670667
 42
9.751187199278298
  0
ELLIPSE
  5
CE2
330
CCD
100
AcDbEntity
  8
0
100
AcDbEllipse
 10
-0.0000000000000089
 20
-11.07314909194155
 30
0.0
 11
-2.191623175793064
 21
-0.0000000000000001
 31
0.0
210
0.0
220
0.0
230
1.0
 40
0.5773502691896257
 41
0.314354609730466
 42
2.827238043859326
  0
ELLIPSE
  5
CE3
330
CCD
100
AcDbEntity
  8
0
100
AcDbEllipse
 10
-0.0000000000000086
 20
-9.856516221759822
 30
0.0
 11
-1.749999999999997
 21
-0.0000000000000002
 31
0.0
210
0.0
220
0.0
230
1.0
 40
0.5773502691896258
 41
0.3143546097304748
 42
2.827238043859314
  0
ELLIPSE
  5
CE4
330
CCD
100
AcDbEntity
  8
0
100
AcDbEllipse
 10
-0.000000000000009
 20
-9.941090510647816
 30
0.0
 11
-2.126524613390193
 21
0.0000000000000003
 31
0.0
210
0.0
220
0.0
230
1.0
 40
0.5773502691896258
 41
5.956776068670667
 42
9.751187199278298
  0
ELLIPSE
  5
CE5
330
CCD
100
AcDbEntity
  8
0
100
AcDbEllipse
 10
-0.0000000000000089
 20
-10.05252836578189
 30
0.0
 11
-2.191623175793064
 21
-0.0000000000000001
 31
0.0
210
0.0
220
0.0
230
1.0
 40
0.5773502691896257
 41
0.314354609730466
 42
2.827238043859326
  0
ELLIPSE
  5
CE6
330
CCD
100
AcDbEntity
  8
0
100
AcDbEllipse
 10
-0.0000000000000086
 20
-8.835895495600162
 30
0.0
 11
-1.749999999999997
 21
-0.0000000000000002
 31
0.0
210
0.0
220
0.0
230
1.0
 40
0.5773502691896258
 41
0.3143546097304766
 42
2.827238043859316
  0
ELLIPSE
  5
CE7
330
CCD
100
AcDbEntity
  8
0
100
AcDbEllipse
 10
-0.000000000000009
 20
-8.920469784488158
 30
0.0
 11
-2.126524613390193
 21
0.0000000000000003
 31
0.0
210
0.0
220
0.0
230
1.0
 40
0.5773502691896258
 41
5.956776068670667
 42
9.751187199278298
  0
ELLIPSE
  5
CE8
330
CCD
100
AcDbEntity
  8
0
100
AcDbEllipse
 10
-0.0000000000000089
 20
-9.031907639622232
 30
0.0
 11
-2.191623175793064
 21
-0.0000000000000001
 31
0.0
210
0.0
220
0.0
230
1.0
 40
0.5773502691896257
 41
0.314354609730466
 42
2.827238043859325
  0
ELLIPSE
  5
CE9
330
CCD
100
AcDbEntity
  8
0
100
AcDbEllipse
 10
-0.0000000000000086
 20
-7.815274769440505
 30
0.0
 11
-1.749999999999997
 21
-0.0000000000000002
 31
0.0
210
0.0
220
0.0
230
1.0
 40
0.5773502691896258
 41
0.3143546097304766
 42
2.827238043859316
  0
ELLIPSE
  5
CEA
330
CCD
100
AcDbEntity
  8
0
100
AcDbEllipse
 10
-0.000000000000009
 20
-7.8998490583285
 30
0.0
 11
-2.126524613390193
 21
0.0000000000000003
 31
0.0
210
0.0
220
0.0
230
1.0
 40
0.5773502691896258
 41
5.956776068670667
 42
9.751187199278298
  0
ELLIPSE
  5
CEB
330
CCD
100
AcDbEntity
  8
0
100
AcDbEllipse
 10
-0.0000000000000089
 20
-8.011286913462573
 30
0.0
 11
-2.191623175793064
 21
-0.0000000000000001
 31
0.0
210
0.0
220
0.0
230
1.0
 40
0.5773502691896257
 41
0.314354609730466
 42
2.827238043859325
  0
ELLIPSE
  5
CEC
330
CCD
100
AcDbEntity
  8
0
100
AcDbEllipse
 10
-0.0000000000000086
 20
-6.794654043280847
 30
0.0
 11
-1.749999999999997
 21
-0.0000000000000002
 31
0.0
210
0.0
220
0.0
230
1.0
 40
0.5773502691896258
 41
0.3143546097304766
 42
2.827238043859316
  0
ELLIPSE
  5
CED
330
CCD
100
AcDbEntity
  8
0
100
AcDbEllipse
 10
-0.000000000000009
 20
-6.879228332168842
 30
0.0
 11
-2.126524613390193
 21
0.0000000000000003
 31
0.0
210
0.0
220
0.0
230
1.0
 40
0.5773502691896258
 41
5.956776068670667
 42
9.751187199278298
  0
ELLIPSE
  5
CEE
330
CCD
100
AcDbEntity
  8
0
100
AcDbEllipse
 10
-0.0000000000000089
 20
-6.990666187302916
 30
0.0
 11
-2.191623175793064
 21
-0.0000000000000001
 31
0.0
210
0.0
220
0.0
230
1.0
 40
0.5773502691896257
 41
0.314354609730466
 42
2.827238043859325
  0
ELLIPSE
  5
CEF
330
CCD
100
AcDbEntity
  8
0
100
AcDbEllipse
 10
-0.0000000000000086
 20
-5.774033317121189
 30
0.0
 11
-1.749999999999997
 21
-0.0000000000000002
 31
0.0
210
0.0
220
0.0
230
1.0
 40
0.5773502691896258
 41
0.3143546097304766
 42
2.827238043859316
  0
ELLIPSE
  5
CF0
330
CCD
100
AcDbEntity
  8
0
100
AcDbEllipse
 10
-0.000000000000009
 20
-5.858607606009185
 30
0.0
 11
-2.126524613390193
 21
0.0000000000000003
 31
0.0
210
0.0
220
0.0
230
1.0
 40
0.5773502691896258
 41
5.956776068670667
 42
9.751187199278298
  0
ELLIPSE
  5
CF1
330
CCD
100
AcDbEntity
  8
0
100
AcDbEllipse
 10
-0.0000000000000089
 20
-5.970045461143258
 30
0.0
 11
-2.191623175793064
 21
-0.0000000000000001
 31
0.0
210
0.0
220
0.0
230
1.0
 40
0.5773502691896257
 41
0.314354609730466
 42
2.827238043859325
  0
ELLIPSE
  5
CF2
330
CCD
100
AcDbEntity
  8
0
100
AcDbEllipse
 10
-0.0000000000000086
 20
-4.753412590961532
 30
0.0
 11
-1.749999999999997
 21
-0.0000000000000002
 31
0.0
210
0.0
220
0.0
230
1.0
 40
0.5773502691896258
 41
0.3143546097304766
 42
2.827238043859316
  0
ELLIPSE
  5
CF3
330
CCD
100
AcDbEntity
  8
0
100
AcDbEllipse
 10
-0.000000000000009
 20
-4.837986879849527
 30
0.0
 11
-2.126524613390193
 21
0.0000000000000003
 31
0.0
210
0.0
220
0.0
230
1.0
 40
0.5773502691896258
 41
5.956776068670667
 42
9.751187199278298
  0
ELLIPSE
  5
CF4
330
CCD
100
AcDbEntity
  8
0
100
AcDbEllipse
 10
-0.0000000000000089
 20
-4.9494247349836
 30
0.0
 11
-2.191623175793064
 21
-0.0000000000000001
 31
0.0
210
0.0
220
0.0
230
1.0
 40
0.5773502691896257
 41
0.314354609730466
 42
2.827238043859325
  0
ELLIPSE
  5
CF5
330
CCD
100
AcDbEntity
  8
0
100
AcDbEllipse
 10
-0.0000000000000086
 20
-3.732791864801874
 30
0.0
 11
-1.749999999999997
 21
-0.0000000000000002
 31
0.0
210
0.0
220
0.0
230
1.0
 40
0.5773502691896258
 41
0.3143546097304748
 42
2.827238043859314
  0
ELLIPSE
  5
CF6
330
CCD
100
AcDbEntity
  8
0
100
AcDbEllipse
 10
-0.000000000000009
 20
-3.817366153689869
 30
0.0
 11
-2.126524613390193
 21
0.0000000000000003
 31
0.0
210
0.0
220
0.0
230
1.0
 40
0.5773502691896258
 41
5.956776068670667
 42
9.751187199278298
  0
ELLIPSE
  5
CF7
330
CCD
100
AcDbEntity
  8
0
100
AcDbEllipse
 10
-0.0000000000000089
 20
-3.928804008823942
 30
0.0
 11
-2.191623175793064
 21
-0.0000000000000001
 31
0.0
210
0.0
220
0.0
230
1.0
 40
0.5773502691896257
 41
0.3143546097304655
 42
2.827238043859325
  0
ELLIPSE
  5
CF8
330
CCD
100
AcDbEntity
  8
0
100
AcDbEllipse
 10
-0.0000000000000086
 20
-2.712171138642216
 30
0.0
 11
-1.749999999999997
 21
-0.0000000000000002
 31
0.0
210
0.0
220
0.0
230
1.0
 40
0.5773502691896258
 41
0.3143546097304748
 42
2.827238043859314
  0
ELLIPSE
  5
CF9
330
CCD
100
AcDbEntity
  8
0
100
AcDbEllipse
 10
-0.000000000000009
 20
-2.796745427530211
 30
0.0
 11
-2.126524613390193
 21
0.0000000000000003
 31
0.0
210
0.0
220
0.0
230
1.0
 40
0.5773502691896258
 41
5.956776068670667
 42
9.751187199278298
  0
ELLIPSE
  5
CFA
330
CCD
100
AcDbEntity
  8
0
100
AcDbEllipse
 10
-0.0000000000000089
 20
-2.908183282664285
 30
0.0
 11
-2.191623175793064
 21
-0.0000000000000001
 31
0.0
210
0.0
220
0.0
230
1.0
 40
0.5773502691896257
 41
0.3143546097304655
 42
2.827238043859325
  0
ELLIPSE
  5
CFB
330
CCD
100
AcDbEntity
  8
0
100
AcDbEllipse
 10
-0.0000000000000086
 20
-1.691550412482558
 30
0.0
 11
-1.749999999999997
 21
-0.0000000000000002
 31
0.0
210
0.0
220
0.0
230
1.0
 40
0.5773502691896258
 41
0.3143546097304757
 42
2.827238043859316
  0
ELLIPSE
  5
CFC
330
CCD
100
AcDbEntity
  8
0
100
AcDbEllipse
 10
-0.000000000000009
 20
-1.776124701370553
 30
0.0
 11
-2.126524613390193
 21
0.0000000000000003
 31
0.0
210
0.0
220
0.0
230
1.0
 40
0.5773502691896258
 41
5.956776068670667
 42
9.751187199278298
  0
ELLIPSE
  5
CFD
330
CCD
100
AcDbEntity
  8
0
100
AcDbEllipse
 10
-0.0000000000000089
 20
-1.887562556504627
 30
0.0
 11
-2.191623175793064
 21
-0.0000000000000001
 31
0.0
210
0.0
220
0.0
230
1.0
 40
0.5773502691896257
 41
0.3143546097304655
 42
2.827238043859325
  0
ELLIPSE
  5
CFE
330
CCD
100
AcDbEntity
  8
0
100
AcDbEllipse
 10
-0.0000000000000086
 20
-0.6709296863229009
 30
0.0
 11
-1.749999999999997
 21
-0.0000000000000002
 31
0.0
210
0.0
220
0.0
230
1.0
 40
0.5773502691896258
 41
0.3143546097304757
 42
2.827238043859315
  0
ELLIPSE
  5
CFF
330
CCD
100
AcDbEntity
  8
0
100
AcDbEllipse
 10
-0.000000000000009
 20
-0.7555039752108939
 30
0.0
 11
-2.126524613390193
 21
0.0000000000000003
 31
0.0
210
0.0
220
0.0
230
1.0
 40
0.5773502691896258
 41
5.956776068670667
 42
9.751187199278298
  0
ELLIPSE
  5
D00
330
CCD
100
AcDbEntity
  8
0
100
AcDbEllipse
 10
-0.0000000000000089
 20
-0.8669418303449694
 30
0.0
 11
-2.191623175793064
 21
-0.0000000000000001
 31
0.0
210
0.0
220
0.0
230
1.0
 40
0.5773502691896257
 41
0.3143546097304655
 42
2.827238043859325
  0
ELLIPSE
  5
D01
330
CCD
100
AcDbEntity
  8
0
100
AcDbEllipse
 10
-0.0000000000000086
 20
0.349691039836757
 30
0.0
 11
-1.749999999999997
 21
-0.0000000000000002
 31
0.0
210
0.0
220
0.0
230
1.0
 40
0.5773502691896258
 41
0.3143546097304757
 42
2.827238043859315
  0
ELLIPSE
  5
D02
330
CCD
100
AcDbEntity
  8
0
100
AcDbEllipse
 10
-0.000000000000009
 20
0.265116750948764
 30
0.0
 11
-2.126524613390193
 21
0.0000000000000003
 31
0.0
210
0.0
220
0.0
230
1.0
 40
0.5773502691896258
 41
5.956776068670667
 42
9.751187199278298
  0
ELLIPSE
  5
D03
330
CCD
100
AcDbEntity
  8
0
100
AcDbEllipse
 10
-0.0000000000000089
 20
0.1536788958146884
 30
0.0
 11
-2.191623175793064
 21
-0.0000000000000001
 31
0.0
210
0.0
220
0.0
230
1.0
 40
0.5773502691896257
 41
0.3143546097304659
 42
2.827238043859325
  0
ELLIPSE
  5
D04
330
CCD
100
AcDbEntity
  8
0
100
AcDbEllipse
 10
-0.0000000000000086
 20
1.370311765996414
 30
0.0
 11
-1.749999999999997
 21
-0.0000000000000002
 31
0.0
210
0.0
220
0.0
230
1.0
 40
0.5773502691896258
 41
0.3143546097304757
 42
2.827238043859315
  0
ELLIPSE
  5
D05
330
CCD
100
AcDbEntity
  8
0
100
AcDbEllipse
 10
-0.000000000000009
 20
1.285737477108421
 30
0.0
 11
-2.126524613390193
 21
0.0000000000000003
 31
0.0
210
0.0
220
0.0
230
1.0
 40
0.5773502691896258
 41
5.956776068670667
 42
9.751187199278298
  0
ELLIPSE
  5
D06
330
CCD
100
AcDbEntity
  8
0
100
AcDbEllipse
 10
-0.0000000000000089
 20
1.174299621974346
 30
0.0
 11
-2.191623175793064
 21
-0.0000000000000001
 31
0.0
210
0.0
220
0.0
230
1.0
 40
0.5773502691896257
 41
0.3143546097304659
 42
2.827238043859325
  0
ELLIPSE
  5
D07
330
CCD
100
AcDbEntity
  8
0
100
AcDbEllipse
 10
-0.0000000000000086
 20
2.390932492156072
 30
0.0
 11
-1.749999999999997
 21
-0.0000000000000002
 31
0.0
210
0.0
220
0.0
230
1.0
 40
0.5773502691896258
 41
0.3143546097304757
 42
2.827238043859316
  0
ELLIPSE
  5
D08
330
CCD
100
AcDbEntity
  8
0
100
AcDbEllipse
 10
-0.000000000000009
 20
2.306358203268079
 30
0.0
 11
-2.126524613390193
 21
0.0000000000000003
 31
0.0
210
0.0
220
0.0
230
1.0
 40
0.5773502691896258
 41
5.956776068670667
 42
9.751187199278298
  0
ELLIPSE
  5
D09
330
CCD
100
AcDbEntity
  8
0
100
AcDbEllipse
 10
-0.0000000000000089
 20
2.194920348134004
 30
0.0
 11
-2.191623175793064
 21
-0.0000000000000001
 31
0.0
210
0.0
220
0.0
230
1.0
 40
0.5773502691896257
 41
0.3143546097304655
 42
2.827238043859325
  0
ELLIPSE
  5
D0A
330
CCD
100
AcDbEntity
  8
0
100
AcDbEllipse
 10
-0.0000000000000086
 20
3.41155321831573
 30
0.0
 11
-1.749999999999997
 21
-0.0000000000000002
 31
0.0
210
0.0
220
0.0
230
1.0
 40
0.5773502691896258
 41
0.3143546097304748
 42
2.827238043859314
  0
ELLIPSE
  5
D0B
330
CCD
100
AcDbEntity
  8
0
100
AcDbEllipse
 10
-0.000000000000009
 20
3.326978929427737
 30
0.0
 11
-2.126524613390193
 21
0.0000000000000003
 31
0.0
210
0.0
220
0.0
230
1.0
 40
0.5773502691896258
 41
5.956776068670667
 42
9.751187199278298
  0
ELLIPSE
  5
D0C
330
CCD
100
AcDbEntity
  8
0
100
AcDbEllipse
 10
-0.0000000000000089
 20
3.215541074293661
 30
0.0
 11
-2.191623175793064
 21
-0.0000000000000001
 31
0.0
210
0.0
220
0.0
230
1.0
 40
0.5773502691896257
 41
0.3143546097304655
 42
2.827238043859325
  0
ELLIPSE
  5
D0D
330
CCD
100
AcDbEntity
  8
0
100
AcDbEllipse
 10
-0.0000000000000086
 20
4.432173944475388
 30
0.0
 11
-1.749999999999997
 21
-0.0000000000000002
 31
0.0
210
0.0
220
0.0
230
1.0
 40
0.5773502691896258
 41
0.3143546097304748
 42
2.827238043859314
  0
ELLIPSE
  5
D0E
330
CCD
100
AcDbEntity
  8
0
100
AcDbEllipse
 10
-0.000000000000009
 20
4.347599655587394
 30
0.0
 11
-2.126524613390193
 21
0.0000000000000003
 31
0.0
210
0.0
220
0.0
230
1.0
 40
0.5773502691896258
 41
5.956776068670667
 42
9.751187199278298
  0
ELLIPSE
  5
D0F
330
CCD
100
AcDbEntity
  8
0
100
AcDbEllipse
 10
-0.0000000000000089
 20
4.236161800453319
 30
0.0
 11
-2.191623175793064
 21
-0.0000000000000001
 31
0.0
210
0.0
220
0.0
230
1.0
 40
0.5773502691896257
 41
0.3143546097304655
 42
2.827238043859325
  0
ELLIPSE
  5
D10
330
CCD
100
AcDbEntity
  8
0
100
AcDbEllipse
 10
-0.0000000000000086
 20
5.452794670635046
 30
0.0
 11
-1.749999999999997
 21
-0.0000000000000002
 31
0.0
210
0.0
220
0.0
230
1.0
 40
0.5773502691896258
 41
0.3143546097304766
 42
2.827238043859316
  0
ELLIPSE
  5
D11
330
CCD
100
AcDbEntity
  8
0
100
AcDbEllipse
 10
-0.000000000000009
 20
5.368220381747052
 30
0.0
 11
-2.126524613390193
 21
0.0000000000000003
 31
0.0
210
0.0
220
0.0
230
1.0
 40
0.5773502691896258
 41
5.956776068670667
 42
9.751187199278298
  0
ELLIPSE
  5
D12
330
CCD
100
AcDbEntity
  8
0
100
AcDbEllipse
 10
-0.0000000000000089
 20
5.256782526612977
 30
0.0
 11
-2.191623175793064
 21
-0.0000000000000001
 31
0.0
210
0.0
220
0.0
230
1.0
 40
0.5773502691896257
 41
0.3143546097304655
 42
2.827238043859325
  0
ELLIPSE
  5
D13
330
CCD
100
AcDbEntity
  8
0
100
AcDbEllipse
 10
-0.0000000000000086
 20
6.473415396794703
 30
0.0
 11
-1.749999999999997
 21
-0.0000000000000002
 31
0.0
210
0.0
220
0.0
230
1.0
 40
0.5773502691896258
 41
0.3143546097304766
 42
2.827238043859316
  0
ELLIPSE
  5
D14
330
CCD
100
AcDbEntity
  8
0
100
AcDbEllipse
 10
-0.000000000000009
 20
6.38884110790671
 30
0.0
 11
-2.126524613390193
 21
0.0000000000000003
 31
0.0
210
0.0
220
0.0
230
1.0
 40
0.5773502691896258
 41
5.956776068670667
 42
9.751187199278298
  0
ELLIPSE
  5
D15
330
CCD
100
AcDbEntity
  8
0
100
AcDbEllipse
 10
-0.0000000000000089
 20
6.277403252772635
 30
0.0
 11
-2.191623175793064
 21
-0.0000000000000001
 31
0.0
210
0.0
220
0.0
230
1.0
 40
0.5773502691896257
 41
0.314354609730466
 42
2.827238043859325
  0
ELLIPSE
  5
D16
330
CCD
100
AcDbEntity
  8
0
100
AcDbEllipse
 10
-0.0000000000000086
 20
7.494036122954361
 30
0.0
 11
-1.749999999999997
 21
-0.0000000000000002
 31
0.0
210
0.0
220
0.0
230
1.0
 40
0.5773502691896258
 41
0.3143546097304766
 42
2.827238043859316
  0
ELLIPSE
  5
D17
330
CCD
100
AcDbEntity
  8
0
100
AcDbEllipse
 10
-0.000000000000009
 20
7.409461834066368
 30
0.0
 11
-2.126524613390193
 21
0.0000000000000003
 31
0.0
210
0.0
220
0.0
230
1.0
 40
0.5773502691896258
 41
5.956776068670667
 42
9.751187199278298
  0
ELLIPSE
  5
D18
330
CCD
100
AcDbEntity
  8
0
100
AcDbEllipse
 10
-0.0000000000000089
 20
7.298023978932293
 30
0.0
 11
-2.191623175793064
 21
-0.0000000000000001
 31
0.0
210
0.0
220
0.0
230
1.0
 40
0.5773502691896257
 41
0.314354609730466
 42
2.827238043859325
  0
ELLIPSE
  5
D19
330
CCD
100
AcDbEntity
  8
0
100
AcDbEllipse
 10
-0.0000000000000086
 20
8.514656849114018
 30
0.0
 11
-1.749999999999997
 21
-0.0000000000000002
 31
0.0
210
0.0
220
0.0
230
1.0
 40
0.5773502691896258
 41
0.3143546097304766
 42
2.827238043859316
  0
ELLIPSE
  5
D1A
330
CCD
100
AcDbEntity
  8
0
100
AcDbEllipse
 10
-0.000000000000009
 20
8.430082560226026
 30
0.0
 11
-2.126524613390193
 21
0.0000000000000003
 31
0.0
210
0.0
220
0.0
230
1.0
 40
0.5773502691896258
 41
5.956776068670667
 42
9.751187199278298
  0
ELLIPSE
  5
D1B
330
CCD
100
AcDbEntity
  8
0
100
AcDbEllipse
 10
-0.0000000000000089
 20
8.318644705091951
 30
0.0
 11
-2.191623175793064
 21
-0.0000000000000001
 31
0.0
210
0.0
220
0.0
230
1.0
 40
0.5773502691896257
 41
0.314354609730466
 42
2.827238043859325
  0
ELLIPSE
  5
D1C
330
CCD
100
AcDbEntity
  8
0
100
AcDbEllipse
 10
-0.0000000000000086
 20
9.535277575273678
 30
0.0
 11
-1.749999999999997
 21
-0.0000000000000002
 31
0.0
210
0.0
220
0.0
230
1.0
 40
0.5773502691896258
 41
0.3143546097304766
 42
2.827238043859316
  0
ELLIPSE
  5
D1D
330
CCD
100
AcDbEntity
  8
0
100
AcDbEllipse
 10
-0.000000000000009
 20
9.450703286385683
 30
0.0
 11
-2.126524613390193
 21
0.0000000000000003
 31
0.0
210
0.0
220
0.0
230
1.0
 40
0.5773502691896258
 41
5.956776068670667
 42
9.751187199278298
  0
ELLIPSE
  5
D1E
330
CCD
100
AcDbEntity
  8
0
100
AcDbEllipse
 10
-0.0000000000000089
 20
9.339265431251609
 30
0.0
 11
-2.191623175793064
 21
-0.0000000000000001
 31
0.0
210
0.0
220
0.0
230
1.0
 40
0.5773502691896257
 41
0.314354609730466
 42
2.827238043859325
  0
ELLIPSE
  5
D1F
330
CCD
100
AcDbEntity
  8
0
100
AcDbEllipse
 10
-0.0000000000000086
 20
10.55589830143333
 30
0.0
 11
-1.749999999999997
 21
-0.0000000000000002
 31
0.0
210
0.0
220
0.0
230
1.0
 40
0.5773502691896258
 41
0.3143546097304748
 42
2.827238043859314
  0
ELLIPSE
  5
D20
330
CCD
100
AcDbEntity
  8
0
100
AcDbEllipse
 10
-0.000000000000009
 20
10.47132401254534
 30
0.0
 11
-2.126524613390193
 21
0.0000000000000003
 31
0.0
210
0.0
220
0.0
230
1.0
 40
0.5773502691896258
 41
5.956776068670667
 42
9.751187199278298
  0
ELLIPSE
  5
D21
330
CCD
100
AcDbEntity
  8
0
100
AcDbEllipse
 10
-0.0000000000000087
 20
10.35988615741127
 30
0.0
 11
-2.191623175793063
 21
-0.0000000000000003
 31
0.0
210
0.0
220
0.0
230
1.0
 40
0.5773502691896259
 41
0.314354609730465
 42
2.827238043859326
  0
ELLIPSE
  5
D22
330
CCD
100
AcDbEntity
  8
0
100
AcDbEllipse
 10
-0.0000000000000086
 20
11.57651902759299
 30
0.0
 11
-1.749999999999997
 21
-0.0000000000000002
 31
0.0
210
0.0
220
0.0
230
1.0
 40
0.5773502691896258
 41
0.3143546097304748
 42
2.827238043859314
  0
ELLIPSE
  5
D23
330
CCD
100
AcDbEntity
  8
0
100
AcDbEllipse
 10
-0.000000000000009
 20
11.491944738705
 30
0.0
 11
-2.126524613390193
 21
0.0000000000000003
 31
0.0
210
0.0
220
0.0
230
1.0
 40
0.5773502691896258
 41
5.956776068670667
 42
9.751187199278298
  0
ELLIPSE
  5
D24
330
CCD
100
AcDbEntity
  8
0
100
AcDbEllipse
 10
-0.0000000000000087
 20
11.38050688357092
 30
0.0
 11
-2.191623175793063
 21
-0.0000000000000003
 31
0.0
210
0.0
220
0.0
230
1.0
 40
0.5773502691896259
 41
0.3143546097304656
 42
2.827238043859326
  0
ELLIPSE
  5
D25
330
CCD
100
AcDbEntity
  8
0
100
AcDbEllipse
 10
-0.0000000000000089
 20
12.59713975375265
 30
0.0
 11
-1.749999999999999
 21
0.0
 31
0.0
210
0.0
220
0.0
230
1.0
 40
0.5773502691896258
 41
0.3143546097304754
 42
2.82723804385932
  0
ELLIPSE
  5
D26
330
CCD
100
AcDbEntity
  8
0
100
AcDbEllipse
 10
-0.0000000000000087
 20
12.51256546486466
 30
0.0
 11
-2.126524613390193
 21
0.0000000000000001
 31
0.0
210
0.0
220
0.0
230
1.0
 40
0.5773502691896257
 41
5.922311682320283
 42
9.785651585628674
  0
ELLIPSE
  5
D27
330
CCD
100
AcDbEntity
  8
0
100
AcDbEllipse
 10
-0.0000000000000087
 20
12.40112760973058
 30
0.0
 11
-2.191623175793063
 21
-0.0000000000000003
 31
0.0
210
0.0
220
0.0
230
1.0
 40
0.5773502691896259
 41
0.3143546097304656
 42
2.827238043859326
  0
SPLINE
  5
D28
330
CCD
100
AcDbEntity
  8
0
100
AcDbSpline
210
0.0
220
0.0
230
1.0
 70
     8
 71
     3
 72
    12
 73
     8
 74
     0
 42
0.000000001
 43
0.0000000001
 40
0.471043553666947
 40
0.471043553666947
 40
0.471043553666947
 40
0.471043553666947
 40
0.7820503547189651
 40
0.7820503547189651
 40
1.075991789023939
 40
1.075991789023939
 40
1.164704273717286
 40
1.164704273717286
 40
1.164704273717286
 40
1.164704273717286
 10
2.084225166090877
 20
-15.54687684817855
 30
0.0
 10
2.158936633132975
 20
-15.41421012283715
 30
0.0
 10
2.199153602695832
 20
-15.27120449289621
 30
0.0
 10
2.200773793621868
 20
-14.99179361179365
 30
0.0
 10
2.166409101712261
 20
-14.85629473548622
 30
0.0
 10
2.080933970507212
 20
-14.69128038791002
 30
0.0
 10
2.058305425268161
 20
-14.6537802119742
 30
0.0
 10
2.03302799826342
 20
-14.61716801106794
 30
0.0
  0
SPLINE
  5
D29
330
CCD
100
AcDbEntity
  8
0
100
AcDbSpline
210
0.0
220
0.0
230
1.0
 70
     8
 71
     3
 72
    12
 73
     8
 74
     0
 42
0.000000001
 43
0.0000000001
 40
3.547684706667403
 40
3.547684706667403
 40
3.547684706667403
 40
3.547684706667403
 40
3.669602340872339
 40
3.669602340872339
 40
3.976209328623868
 40
3.976209328623868
 40
4.241345426717742
 40
4.241345426717742
 40
4.241345426717742
 40
4.241345426717742
 10
-2.033027998263437
 20
-14.61716801106794
 30
0.0
 10
-2.067766785141731
 20
-14.6674841862146
 30
0.0
 10
-2.097501870127322
 20
-14.71948321525071
 30
0.0
 10
-2.182946322891829
 20
-14.90689313600356
 30
0.0
 10
-2.20915177672533
 20
-15.04975366381144
 30
0.0
 10
-2.186668892840653
 20
-15.3132727209805
 30
0.0
 10
-2.147917364420338
 20
-15.43377727033997
 30
0.0
 10
-2.084225166090894
 20
-15.54687684817855
 30
0.0
  0
LINE
  5
D2A
330
CCD
100
AcDbEntity
  8
0
100
AcDbLine
 10
-1.664243233483437
 20
-16.29264761011784
 30
0.0
 11
-2.084225166090909
 21
-15.54687684817852
 31
0.0
  0
LINE
  5
D2B
330
CCD
100
AcDbEntity
  8
0
100
AcDbLine
 10
1.66424323348342
 20
-16.29264761011784
 30
0.0
 11
2.084225166090891
 21
-15.54687684817852
 31
0.0
  0
SPLINE
  5
D2C
330
CCD
100
AcDbEntity
  8
0
100
AcDbSpline
210
0.0
220
0.0
230
1.0
 70
     8
 71
     3
 72
    12
 73
     8
 74
     0
 42
0.000000001
 43
0.0000000001
 40
0.4710435536669454
 40
0.4710435536669454
 40
0.4710435536669454
 40
0.4710435536669454
 40
0.7820503547189635
 40
0.7820503547189635
 40
1.075991789023938
 40
1.075991789023938
 40
1.164704273717286
 40
1.164704273717286
 40
1.164704273717286
 40
1.164704273717286
 10
2.084225166090876
 20
-14.52625612201889
 30
0.0
 10
2.158936633132974
 20
-14.39358939667749
 30
0.0
 10
2.199153602695831
 20
-14.25058376673655
 30
0.0
 10
2.200773793621868
 20
-13.97117288563399
 30
0.0
 10
2.166409101712261
 20
-13.83567400932657
 30
0.0
 10
2.080933970507213
 20
-13.67065966175036
 30
0.0
 10
2.058305425268162
 20
-13.63315948581454
 30
0.0
 10
2.03302799826342
 20
-13.59654728490828
 30
0.0
  0
SPLINE
  5
D2D
330
CCD
100
AcDbEntity
  8
0
100
AcDbSpline
210
0.0
220
0.0
230
1.0
 70
     8
 71
     3
 72
    12
 73
     8
 74
     0
 42
0.000000001
 43
0.0000000001
 40
3.547684706667403
 40
3.547684706667403
 40
3.547684706667403
 40
3.547684706667403
 40
3.669602340872339
 40
3.669602340872339
 40
3.976209328623867
 40
3.976209328623867
 40
4.241345426717744
 40
4.241345426717744
 40
4.241345426717744
 40
4.241345426717744
 10
-2.033027998263437
 20
-13.59654728490827
 30
0.0
 10
-2.067766785141731
 20
-13.64686346005495
 30
0.0
 10
-2.097501870127321
 20
-13.69886248909105
 30
0.0
 10
-2.182946322891829
 20
-13.8862724098439
 30
0.0
 10
-2.20915177672533
 20
-14.02913293765178
 30
0.0
 10
-2.186668892840653
 20
-14.29265199482085
 30
0.0
 10
-2.147917364420338
 20
-14.41315654418031
 30
0.0
 10
-2.084225166090893
 20
-14.52625612201889
 30
0.0
  0
LINE
  5
D2E
330
CCD
100
AcDbEntity
  8
0
100
AcDbLine
 10
-1.664243233483437
 20
-15.27202688395818
 30
0.0
 11
-2.084225166090909
 21
-14.52625612201886
 31
0.0
  0
LINE
  5
D2F
330
CCD
100
AcDbEntity
  8
0
100
AcDbLine
 10
1.66424323348342
 20
-15.27202688395818
 30
0.0
 11
2.084225166090891
 21
-14.52625612201886
 31
0.0
  0
SPLINE
  5
D30
330
CCD
100
AcDbEntity
  8
0
100
AcDbSpline
210
0.0
220
0.0
230
1.0
 70
     8
 71
     3
 72
    12
 73
     8
 74
     0
 42
0.000000001
 43
0.0000000001
 40
0.4710435536669816
 40
0.4710435536669816
 40
0.4710435536669816
 40
0.4710435536669816
 40
0.7820503547189968
 40
0.7820503547189968
 40
1.075991789023971
 40
1.075991789023971
 40
1.164704273717284
 40
1.164704273717284
 40
1.164704273717284
 40
1.164704273717284
 10
2.084225166090901
 20
-13.50563539585919
 30
0.0
 10
2.158936633132992
 20
-13.37296867051779
 30
0.0
 10
2.19915360269584
 20
-13.22996304057684
 30
0.0
 10
2.200773793621861
 20
-12.95055215947429
 30
0.0
 10
2.166409101712246
 20
-12.81505328316686
 30
0.0
 10
2.080933970507196
 20
-12.65003893559067
 30
0.0
 10
2.058305425268153
 20
-12.61253875965487
 30
0.0
 10
2.03302799826342
 20
-12.57592655874863
 30
0.0
  0
SPLINE
  5
D31
330
CCD
100
AcDbEntity
  8
0
100
AcDbSpline
210
0.0
220
0.0
230
1.0
 70
     8
 71
     3
 72
    12
 73
     8
 74
     0
 42
0.000000001
 43
0.0000000001
 40
3.547684706667405
 40
3.547684706667405
 40
3.547684706667405
 40
3.547684706667405
 40
3.669602340872374
 40
3.669602340872374
 40
3.9762093286239
 40
3.9762093286239
 40
4.241345426717708
 40
4.241345426717708
 40
4.241345426717708
 40
4.241345426717708
 10
-2.033027998263439
 20
-12.57592655874862
 30
0.0
 10
-2.067766785141743
 20
-12.62624273389531
 30
0.0
 10
-2.097501870127339
 20
-12.67824176293142
 30
0.0
 10
-2.182946322891841
 20
-12.86565168368429
 30
0.0
 10
-2.209151776725334
 20
-13.00851221149217
 30
0.0
 10
-2.186668892840645
 20
-13.2720312686612
 30
0.0
 10
-2.147917364420341
 20
-13.39253581802063
 30
0.0
 10
-2.08422516609092
 20
-13.50563539585919
 30
0.0
  0
LINE
  5
D32
330
CCD
100
AcDbEntity
  8
0
100
AcDbLine
 10
-1.664243233483437
 20
-14.25140615779852
 30
0.0
 11
-2.084225166090909
 21
-13.5056353958592
 31
0.0
  0
LINE
  5
D33
330
CCD
100
AcDbEntity
  8
0
100
AcDbLine
 10
1.66424323348342
 20
-14.25140615779852
 30
0.0
 11
2.084225166090891
 21
-13.5056353958592
 31
0.0
  0
SPLINE
  5
D34
330
CCD
100
AcDbEntity
  8
0
100
AcDbSpline
210
0.0
220
0.0
230
1.0
 70
     8
 71
     3
 72
    12
 73
     8
 74
     0
 42
0.000000001
 43
0.0000000001
 40
0.4710435536669816
 40
0.4710435536669816
 40
0.4710435536669816
 40
0.4710435536669816
 40
0.7820503547189968
 40
0.7820503547189968
 40
1.075991789023971
 40
1.075991789023971
 40
1.164704273717284
 40
1.164704273717284
 40
1.164704273717284
 40
1.164704273717284
 10
2.084225166090901
 20
-12.48501466969953
 30
0.0
 10
2.158936633132992
 20
-12.35234794435813
 30
0.0
 10
2.19915360269584
 20
-12.20934231441719
 30
0.0
 10
2.200773793621861
 20
-11.92993143331463
 30
0.0
 10
2.166409101712246
 20
-11.7944325570072
 30
0.0
 10
2.080933970507196
 20
-11.62941820943102
 30
0.0
 10
2.058305425268153
 20
-11.59191803349521
 30
0.0
 10
2.03302799826342
 20
-11.55530583258897
 30
0.0
  0
SPLINE
  5
D35
330
CCD
100
AcDbEntity
  8
0
100
AcDbSpline
210
0.0
220
0.0
230
1.0
 70
     8
 71
     3
 72
    12
 73
     8
 74
     0
 42
0.000000001
 43
0.0000000001
 40
3.547684706667405
 40
3.547684706667405
 40
3.547684706667405
 40
3.547684706667405
 40
3.669602340872374
 40
3.669602340872374
 40
3.9762093286239
 40
3.9762093286239
 40
4.241345426717708
 40
4.241345426717708
 40
4.241345426717708
 40
4.241345426717708
 10
-2.033027998263439
 20
-11.55530583258897
 30
0.0
 10
-2.067766785141743
 20
-11.60562200773565
 30
0.0
 10
-2.097501870127339
 20
-11.65762103677176
 30
0.0
 10
-2.182946322891841
 20
-11.84503095752463
 30
0.0
 10
-2.209151776725334
 20
-11.98789148533251
 30
0.0
 10
-2.186668892840645
 20
-12.25141054250154
 30
0.0
 10
-2.147917364420341
 20
-12.37191509186098
 30
0.0
 10
-2.08422516609092
 20
-12.48501466969953
 30
0.0
  0
LINE
  5
D36
330
CCD
100
AcDbEntity
  8
0
100
AcDbLine
 10
-1.66424323348344
 20
-13.23078543163886
 30
0.0
 11
-2.084225166090912
 21
-12.48501466969954
 31
0.0
  0
LINE
  5
D37
330
CCD
100
AcDbEntity
  8
0
100
AcDbLine
 10
1.664243233483423
 20
-13.23078543163886
 30
0.0
 11
2.084225166090894
 21
-12.48501466969954
 31
0.0
  0
SPLINE
  5
D38
330
CCD
100
AcDbEntity
  8
0
100
AcDbSpline
210
0.0
220
0.0
230
1.0
 70
     8
 71
     3
 72
    12
 73
     8
 74
     0
 42
0.000000001
 43
0.0000000001
 40
0.4710435536669816
 40
0.4710435536669816
 40
0.4710435536669816
 40
0.4710435536669816
 40
0.7820503547189968
 40
0.7820503547189968
 40
1.075991789023971
 40
1.075991789023971
 40
1.164704273717284
 40
1.164704273717284
 40
1.164704273717284
 40
1.164704273717284
 10
2.084225166090901
 20
-11.46439394353987
 30
0.0
 10
2.158936633132992
 20
-11.33172721819847
 30
0.0
 10
2.19915360269584
 20
-11.18872158825753
 30
0.0
 10
2.200773793621861
 20
-10.90931070715497
 30
0.0
 10
2.166409101712246
 20
-10.77381183084755
 30
0.0
 10
2.080933970507196
 20
-10.60879748327136
 30
0.0
 10
2.058305425268153
 20
-10.57129730733555
 30
0.0
 10
2.03302799826342
 20
-10.53468510642931
 30
0.0
  0
SPLINE
  5
D39
330
CCD
100
AcDbEntity
  8
0
100
AcDbSpline
210
0.0
220
0.0
230
1.0
 70
     8
 71
     3
 72
    12
 73
     8
 74
     0
 42
0.000000001
 43
0.0000000001
 40
3.547684706667405
 40
3.547684706667405
 40
3.547684706667405
 40
3.547684706667405
 40
3.669602340872374
 40
3.669602340872374
 40
3.9762093286239
 40
3.9762093286239
 40
4.241345426717708
 40
4.241345426717708
 40
4.241345426717708
 40
4.241345426717708
 10
-2.033027998263439
 20
-10.53468510642931
 30
0.0
 10
-2.067766785141743
 20
-10.58500128157599
 30
0.0
 10
-2.097501870127339
 20
-10.63700031061211
 30
0.0
 10
-2.182946322891841
 20
-10.82441023136497
 30
0.0
 10
-2.209151776725334
 20
-10.96727075917285
 30
0.0
 10
-2.186668892840645
 20
-11.23078981634188
 30
0.0
 10
-2.147917364420341
 20
-11.35129436570132
 30
0.0
 10
-2.08422516609092
 20
-11.46439394353987
 30
0.0
  0
LINE
  5
D3A
330
CCD
100
AcDbEntity
  8
0
100
AcDbLine
 10
-1.66424323348344
 20
-12.2101647054792
 30
0.0
 11
-2.084225166090912
 21
-11.46439394353988
 31
0.0
  0
LINE
  5
D3B
330
CCD
100
AcDbEntity
  8
0
100
AcDbLine
 10
1.664243233483423
 20
-12.2101647054792
 30
0.0
 11
2.084225166090894
 21
-11.46439394353988
 31
0.0
  0
SPLINE
  5
D3C
330
CCD
100
AcDbEntity
  8
0
100
AcDbSpline
210
0.0
220
0.0
230
1.0
 70
     8
 71
     3
 72
    12
 73
     8
 74
     0
 42
0.000000001
 43
0.0000000001
 40
0.4710435536669816
 40
0.4710435536669816
 40
0.4710435536669816
 40
0.4710435536669816
 40
0.7820503547189968
 40
0.7820503547189968
 40
1.075991789023971
 40
1.075991789023971
 40
1.164704273717284
 40
1.164704273717284
 40
1.164704273717284
 40
1.164704273717284
 10
2.084225166090901
 20
-10.44377321738022
 30
0.0
 10
2.158936633132992
 20
-10.31110649203881
 30
0.0
 10
2.19915360269584
 20
-10.16810086209787
 30
0.0
 10
2.200773793621861
 20
-9.888689980995316
 30
0.0
 10
2.166409101712246
 20
-9.753191104687889
 30
0.0
 10
2.080933970507196
 20
-9.588176757111703
 30
0.0
 10
2.058305425268153
 20
-9.550676581175899
 30
0.0
 10
2.03302799826342
 20
-9.514064380269653
 30
0.0
  0
SPLINE
  5
D3D
330
CCD
100
AcDbEntity
  8
0
100
AcDbSpline
210
0.0
220
0.0
230
1.0
 70
     8
 71
     3
 72
    12
 73
     8
 74
     0
 42
0.000000001
 43
0.0000000001
 40
3.547684706667405
 40
3.547684706667405
 40
3.547684706667405
 40
3.547684706667405
 40
3.669602340872374
 40
3.669602340872374
 40
3.9762093286239
 40
3.9762093286239
 40
4.241345426717708
 40
4.241345426717708
 40
4.241345426717708
 40
4.241345426717708
 10
-2.033027998263439
 20
-9.514064380269653
 30
0.0
 10
-2.067766785141743
 20
-9.564380555416338
 30
0.0
 10
-2.097501870127339
 20
-9.616379584452449
 30
0.0
 10
-2.182946322891841
 20
-9.803789505205315
 30
0.0
 10
-2.209151776725334
 20
-9.946650033013195
 30
0.0
 10
-2.186668892840645
 20
-10.21016909018223
 30
0.0
 10
-2.147917364420341
 20
-10.33067363954166
 30
0.0
 10
-2.08422516609092
 20
-10.44377321738022
 30
0.0
  0
LINE
  5
D3E
330
CCD
100
AcDbEntity
  8
0
100
AcDbLine
 10
-1.66424323348344
 20
-11.18954397931954
 30
0.0
 11
-2.084225166090912
 21
-10.44377321738023
 31
0.0
  0
LINE
  5
D3F
330
CCD
100
AcDbEntity
  8
0
100
AcDbLine
 10
1.664243233483423
 20
-11.18954397931954
 30
0.0
 11
2.084225166090894
 21
-10.44377321738023
 31
0.0
  0
SPLINE
  5
D40
330
CCD
100
AcDbEntity
  8
0
100
AcDbSpline
210
0.0
220
0.0
230
1.0
 70
     8
 71
     3
 72
    12
 73
     8
 74
     0
 42
0.000000001
 43
0.0000000001
 40
0.4710435536669816
 40
0.4710435536669816
 40
0.4710435536669816
 40
0.4710435536669816
 40
0.7820503547189968
 40
0.7820503547189968
 40
1.075991789023971
 40
1.075991789023971
 40
1.164704273717284
 40
1.164704273717284
 40
1.164704273717284
 40
1.164704273717284
 10
2.084225166090901
 20
-9.423152491220561
 30
0.0
 10
2.158936633132992
 20
-9.290485765879159
 30
0.0
 10
2.19915360269584
 20
-9.147480135938215
 30
0.0
 10
2.200773793621861
 20
-8.868069254835656
 30
0.0
 10
2.166409101712246
 20
-8.732570378528233
 30
0.0
 10
2.080933970507196
 20
-8.567556030952045
 30
0.0
 10
2.058305425268153
 20
-8.530055855016239
 30
0.0
 10
2.03302799826342
 20
-8.493443654109995
 30
0.0
  0
SPLINE
  5
D41
330
CCD
100
AcDbEntity
  8
0
100
AcDbSpline
210
0.0
220
0.0
230
1.0
 70
     8
 71
     3
 72
    12
 73
     8
 74
     0
 42
0.000000001
 43
0.0000000001
 40
3.547684706667405
 40
3.547684706667405
 40
3.547684706667405
 40
3.547684706667405
 40
3.669602340872374
 40
3.669602340872374
 40
3.9762093286239
 40
3.9762093286239
 40
4.241345426717708
 40
4.241345426717708
 40
4.241345426717708
 40
4.241345426717708
 10
-2.033027998263439
 20
-8.493443654109995
 30
0.0
 10
-2.067766785141743
 20
-8.54375982925668
 30
0.0
 10
-2.097501870127339
 20
-8.595758858292793
 30
0.0
 10
-2.182946322891841
 20
-8.783168779045658
 30
0.0
 10
-2.209151776725334
 20
-8.926029306853537
 30
0.0
 10
-2.186668892840645
 20
-9.18954836402257
 30
0.0
 10
-2.147917364420341
 20
-9.310052913382005
 30
0.0
 10
-2.08422516609092
 20
-9.423152491220561
 30
0.0
  0
LINE
  5
D42
330
CCD
100
AcDbEntity
  8
0
100
AcDbLine
 10
-1.66424323348344
 20
-10.16892325315988
 30
0.0
 11
-2.084225166090912
 21
-9.423152491220569
 31
0.0
  0
LINE
  5
D43
330
CCD
100
AcDbEntity
  8
0
100
AcDbLine
 10
1.664243233483423
 20
-10.16892325315988
 30
0.0
 11
2.084225166090894
 21
-9.423152491220569
 31
0.0
  0
SPLINE
  5
D44
330
CCD
100
AcDbEntity
  8
0
100
AcDbSpline
210
0.0
220
0.0
230
1.0
 70
     8
 71
     3
 72
    12
 73
     8
 74
     0
 42
0.000000001
 43
0.0000000001
 40
0.4710435536669816
 40
0.4710435536669816
 40
0.4710435536669816
 40
0.4710435536669816
 40
0.7820503547189968
 40
0.7820503547189968
 40
1.075991789023971
 40
1.075991789023971
 40
1.164704273717284
 40
1.164704273717284
 40
1.164704273717284
 40
1.164704273717284
 10
2.084225166090901
 20
-8.402531765060903
 30
0.0
 10
2.158936633132992
 20
-8.269865039719501
 30
0.0
 10
2.19915360269584
 20
-8.126859409778557
 30
0.0
 10
2.200773793621861
 20
-7.847448528675999
 30
0.0
 10
2.166409101712246
 20
-7.711949652368574
 30
0.0
 10
2.080933970507196
 20
-7.546935304792388
 30
0.0
 10
2.058305425268153
 20
-7.509435128856583
 30
0.0
 10
2.03302799826342
 20
-7.472822927950337
 30
0.0
  0
SPLINE
  5
D45
330
CCD
100
AcDbEntity
  8
0
100
AcDbSpline
210
0.0
220
0.0
230
1.0
 70
     8
 71
     3
 72
    12
 73
     8
 74
     0
 42
0.000000001
 43
0.0000000001
 40
3.547684706667405
 40
3.547684706667405
 40
3.547684706667405
 40
3.547684706667405
 40
3.669602340872374
 40
3.669602340872374
 40
3.9762093286239
 40
3.9762093286239
 40
4.241345426717708
 40
4.241345426717708
 40
4.241345426717708
 40
4.241345426717708
 10
-2.033027998263439
 20
-7.472822927950337
 30
0.0
 10
-2.067766785141743
 20
-7.523139103097022
 30
0.0
 10
-2.097501870127339
 20
-7.575138132133134
 30
0.0
 10
-2.182946322891841
 20
-7.762548052886
 30
0.0
 10
-2.209151776725334
 20
-7.90540858069388
 30
0.0
 10
-2.186668892840645
 20
-8.168927637862912
 30
0.0
 10
-2.147917364420341
 20
-8.289432187222347
 30
0.0
 10
-2.08422516609092
 20
-8.402531765060903
 30
0.0
  0
LINE
  5
D46
330
CCD
100
AcDbEntity
  8
0
100
AcDbLine
 10
-1.66424323348344
 20
-9.148302527000229
 30
0.0
 11
-2.084225166090912
 21
-8.402531765060912
 31
0.0
  0
LINE
  5
D47
330
CCD
100
AcDbEntity
  8
0
100
AcDbLine
 10
1.664243233483423
 20
-9.148302527000229
 30
0.0
 11
2.084225166090894
 21
-8.402531765060912
 31
0.0
  0
SPLINE
  5
D48
330
CCD
100
AcDbEntity
  8
0
100
AcDbSpline
210
0.0
220
0.0
230
1.0
 70
     8
 71
     3
 72
    12
 73
     8
 74
     0
 42
0.000000001
 43
0.0000000001
 40
0.4710435536669816
 40
0.4710435536669816
 40
0.4710435536669816
 40
0.4710435536669816
 40
0.7820503547189968
 40
0.7820503547189968
 40
1.075991789023971
 40
1.075991789023971
 40
1.164704273717284
 40
1.164704273717284
 40
1.164704273717284
 40
1.164704273717284
 10
2.084225166090901
 20
-7.381911038901245
 30
0.0
 10
2.158936633132992
 20
-7.249244313559843
 30
0.0
 10
2.19915360269584
 20
-7.106238683618899
 30
0.0
 10
2.200773793621861
 20
-6.826827802516342
 30
0.0
 10
2.166409101712246
 20
-6.691328926208917
 30
0.0
 10
2.080933970507196
 20
-6.52631457863273
 30
0.0
 10
2.058305425268153
 20
-6.488814402696925
 30
0.0
 10
2.03302799826342
 20
-6.452202201790684
 30
0.0
  0
SPLINE
  5
D49
330
CCD
100
AcDbEntity
  8
0
100
AcDbSpline
210
0.0
220
0.0
230
1.0
 70
     8
 71
     3
 72
    12
 73
     8
 74
     0
 42
0.000000001
 43
0.0000000001
 40
3.547684706667405
 40
3.547684706667405
 40
3.547684706667405
 40
3.547684706667405
 40
3.669602340872374
 40
3.669602340872374
 40
3.9762093286239
 40
3.9762093286239
 40
4.241345426717708
 40
4.241345426717708
 40
4.241345426717708
 40
4.241345426717708
 10
-2.033027998263439
 20
-6.452202201790679
 30
0.0
 10
-2.067766785141743
 20
-6.502518376937365
 30
0.0
 10
-2.097501870127339
 20
-6.554517405973476
 30
0.0
 10
-2.182946322891841
 20
-6.741927326726342
 30
0.0
 10
-2.209151776725334
 20
-6.884787854534222
 30
0.0
 10
-2.186668892840645
 20
-7.148306911703254
 30
0.0
 10
-2.147917364420341
 20
-7.268811461062689
 30
0.0
 10
-2.08422516609092
 20
-7.381911038901245
 30
0.0
  0
LINE
  5
D4A
330
CCD
100
AcDbEntity
  8
0
100
AcDbLine
 10
-1.66424323348344
 20
-8.127681800840571
 30
0.0
 11
-2.084225166090912
 21
-7.381911038901254
 31
0.0
  0
LINE
  5
D4B
330
CCD
100
AcDbEntity
  8
0
100
AcDbLine
 10
1.664243233483423
 20
-8.127681800840571
 30
0.0
 11
2.084225166090894
 21
-7.381911038901254
 31
0.0
  0
SPLINE
  5
D4C
330
CCD
100
AcDbEntity
  8
0
100
AcDbSpline
210
0.0
220
0.0
230
1.0
 70
     8
 71
     3
 72
    12
 73
     8
 74
     0
 42
0.000000001
 43
0.0000000001
 40
0.4710435536669816
 40
0.4710435536669816
 40
0.4710435536669816
 40
0.4710435536669816
 40
0.7820503547189968
 40
0.7820503547189968
 40
1.075991789023971
 40
1.075991789023971
 40
1.164704273717284
 40
1.164704273717284
 40
1.164704273717284
 40
1.164704273717284
 10
2.084225166090901
 20
-6.361290312741587
 30
0.0
 10
2.158936633132992
 20
-6.228623587400186
 30
0.0
 10
2.19915360269584
 20
-6.085617957459241
 30
0.0
 10
2.200773793621861
 20
-5.806207076356684
 30
0.0
 10
2.166409101712246
 20
-5.670708200049259
 30
0.0
 10
2.080933970507196
 20
-5.505693852473072
 30
0.0
 10
2.058305425268153
 20
-5.468193676537267
 30
0.0
 10
2.03302799826342
 20
-5.431581475631022
 30
0.0
  0
SPLINE
  5
D4D
330
CCD
100
AcDbEntity
  8
0
100
AcDbSpline
210
0.0
220
0.0
230
1.0
 70
     8
 71
     3
 72
    12
 73
     8
 74
     0
 42
0.000000001
 43
0.0000000001
 40
3.547684706667405
 40
3.547684706667405
 40
3.547684706667405
 40
3.547684706667405
 40
3.669602340872374
 40
3.669602340872374
 40
3.9762093286239
 40
3.9762093286239
 40
4.241345426717708
 40
4.241345426717708
 40
4.241345426717708
 40
4.241345426717708
 10
-2.033027998263439
 20
-5.431581475631022
 30
0.0
 10
-2.067766785141743
 20
-5.481897650777707
 30
0.0
 10
-2.097501870127339
 20
-5.533896679813818
 30
0.0
 10
-2.182946322891841
 20
-5.721306600566684
 30
0.0
 10
-2.209151776725334
 20
-5.864167128374564
 30
0.0
 10
-2.186668892840645
 20
-6.127686185543597
 30
0.0
 10
-2.147917364420341
 20
-6.248190734903031
 30
0.0
 10
-2.08422516609092
 20
-6.361290312741587
 30
0.0
  0
LINE
  5
D4E
330
CCD
100
AcDbEntity
  8
0
100
AcDbLine
 10
-1.66424323348344
 20
-7.107061074680913
 30
0.0
 11
-2.084225166090912
 21
-6.361290312741596
 31
0.0
  0
LINE
  5
D4F
330
CCD
100
AcDbEntity
  8
0
100
AcDbLine
 10
1.664243233483423
 20
-7.107061074680913
 30
0.0
 11
2.084225166090894
 21
-6.361290312741596
 31
0.0
  0
SPLINE
  5
D50
330
CCD
100
AcDbEntity
  8
0
100
AcDbSpline
210
0.0
220
0.0
230
1.0
 70
     8
 71
     3
 72
    12
 73
     8
 74
     0
 42
0.000000001
 43
0.0000000001
 40
0.4710435536669816
 40
0.4710435536669816
 40
0.4710435536669816
 40
0.4710435536669816
 40
0.7820503547189968
 40
0.7820503547189968
 40
1.075991789023971
 40
1.075991789023971
 40
1.164704273717284
 40
1.164704273717284
 40
1.164704273717284
 40
1.164704273717284
 10
2.084225166090901
 20
-5.340669586581929
 30
0.0
 10
2.158936633132992
 20
-5.208002861240528
 30
0.0
 10
2.19915360269584
 20
-5.064997231299583
 30
0.0
 10
2.200773793621861
 20
-4.785586350197026
 30
0.0
 10
2.166409101712246
 20
-4.650087473889601
 30
0.0
 10
2.080933970507196
 20
-4.485073126313414
 30
0.0
 10
2.058305425268153
 20
-4.447572950377609
 30
0.0
 10
2.03302799826342
 20
-4.410960749471364
 30
0.0
  0
SPLINE
  5
D51
330
CCD
100
AcDbEntity
  8
0
100
AcDbSpline
210
0.0
220
0.0
230
1.0
 70
     8
 71
     3
 72
    12
 73
     8
 74
     0
 42
0.000000001
 43
0.0000000001
 40
3.547684706667405
 40
3.547684706667405
 40
3.547684706667405
 40
3.547684706667405
 40
3.669602340872374
 40
3.669602340872374
 40
3.9762093286239
 40
3.9762093286239
 40
4.241345426717708
 40
4.241345426717708
 40
4.241345426717708
 40
4.241345426717708
 10
-2.033027998263439
 20
-4.410960749471364
 30
0.0
 10
-2.067766785141743
 20
-4.461276924618049
 30
0.0
 10
-2.097501870127339
 20
-4.513275953654161
 30
0.0
 10
-2.182946322891841
 20
-4.700685874407026
 30
0.0
 10
-2.209151776725334
 20
-4.843546402214906
 30
0.0
 10
-2.186668892840645
 20
-5.107065459383939
 30
0.0
 10
-2.147917364420341
 20
-5.227570008743374
 30
0.0
 10
-2.08422516609092
 20
-5.340669586581929
 30
0.0
  0
LINE
  5
D52
330
CCD
100
AcDbEntity
  8
0
100
AcDbLine
 10
-1.66424323348344
 20
-6.086440348521255
 30
0.0
 11
-2.084225166090912
 21
-5.340669586581938
 31
0.0
  0
LINE
  5
D53
330
CCD
100
AcDbEntity
  8
0
100
AcDbLine
 10
1.664243233483423
 20
-6.086440348521255
 30
0.0
 11
2.084225166090894
 21
-5.340669586581938
 31
0.0
  0
SPLINE
  5
D54
330
CCD
100
AcDbEntity
  8
0
100
AcDbSpline
210
0.0
220
0.0
230
1.0
 70
     8
 71
     3
 72
    12
 73
     8
 74
     0
 42
0.000000001
 43
0.0000000001
 40
0.4710435536669816
 40
0.4710435536669816
 40
0.4710435536669816
 40
0.4710435536669816
 40
0.7820503547189968
 40
0.7820503547189968
 40
1.075991789023971
 40
1.075991789023971
 40
1.164704273717284
 40
1.164704273717284
 40
1.164704273717284
 40
1.164704273717284
 10
2.084225166090901
 20
-4.320048860422271
 30
0.0
 10
2.158936633132992
 20
-4.18738213508087
 30
0.0
 10
2.19915360269584
 20
-4.044376505139926
 30
0.0
 10
2.200773793621861
 20
-3.764965624037368
 30
0.0
 10
2.166409101712246
 20
-3.629466747729943
 30
0.0
 10
2.080933970507196
 20
-3.464452400153756
 30
0.0
 10
2.058305425268153
 20
-3.426952224217951
 30
0.0
 10
2.03302799826342
 20
-3.390340023311706
 30
0.0
  0
SPLINE
  5
D55
330
CCD
100
AcDbEntity
  8
0
100
AcDbSpline
210
0.0
220
0.0
230
1.0
 70
     8
 71
     3
 72
    12
 73
     8
 74
     0
 42
0.000000001
 43
0.0000000001
 40
3.547684706667405
 40
3.547684706667405
 40
3.547684706667405
 40
3.547684706667405
 40
3.669602340872374
 40
3.669602340872374
 40
3.9762093286239
 40
3.9762093286239
 40
4.241345426717708
 40
4.241345426717708
 40
4.241345426717708
 40
4.241345426717708
 10
-2.033027998263439
 20
-3.390340023311706
 30
0.0
 10
-2.067766785141743
 20
-3.440656198458391
 30
0.0
 10
-2.097501870127339
 20
-3.492655227494503
 30
0.0
 10
-2.182946322891841
 20
-3.680065148247368
 30
0.0
 10
-2.209151776725334
 20
-3.822925676055248
 30
0.0
 10
-2.186668892840645
 20
-4.086444733224281
 30
0.0
 10
-2.147917364420341
 20
-4.206949282583716
 30
0.0
 10
-2.08422516609092
 20
-4.320048860422271
 30
0.0
  0
LINE
  5
D56
330
CCD
100
AcDbEntity
  8
0
100
AcDbLine
 10
-1.66424323348344
 20
-5.065819622361598
 30
0.0
 11
-2.084225166090912
 21
-4.32004886042228
 31
0.0
  0
LINE
  5
D57
330
CCD
100
AcDbEntity
  8
0
100
AcDbLine
 10
1.664243233483423
 20
-5.065819622361598
 30
0.0
 11
2.084225166090894
 21
-4.32004886042228
 31
0.0
  0
SPLINE
  5
D58
330
CCD
100
AcDbEntity
  8
0
100
AcDbSpline
210
0.0
220
0.0
230
1.0
 70
     8
 71
     3
 72
    12
 73
     8
 74
     0
 42
0.000000001
 43
0.0000000001
 40
0.4710435536669816
 40
0.4710435536669816
 40
0.4710435536669816
 40
0.4710435536669816
 40
0.7820503547189968
 40
0.7820503547189968
 40
1.075991789023971
 40
1.075991789023971
 40
1.164704273717284
 40
1.164704273717284
 40
1.164704273717284
 40
1.164704273717284
 10
2.084225166090901
 20
-3.299428134262614
 30
0.0
 10
2.158936633132992
 20
-3.166761408921212
 30
0.0
 10
2.19915360269584
 20
-3.023755778980268
 30
0.0
 10
2.200773793621861
 20
-2.74434489787771
 30
0.0
 10
2.166409101712246
 20
-2.608846021570285
 30
0.0
 10
2.080933970507196
 20
-2.443831673994099
 30
0.0
 10
2.058305425268153
 20
-2.406331498058293
 30
0.0
 10
2.03302799826342
 20
-2.369719297152048
 30
0.0
  0
SPLINE
  5
D59
330
CCD
100
AcDbEntity
  8
0
100
AcDbSpline
210
0.0
220
0.0
230
1.0
 70
     8
 71
     3
 72
    12
 73
     8
 74
     0
 42
0.000000001
 43
0.0000000001
 40
3.547684706667405
 40
3.547684706667405
 40
3.547684706667405
 40
3.547684706667405
 40
3.669602340872374
 40
3.669602340872374
 40
3.9762093286239
 40
3.9762093286239
 40
4.241345426717708
 40
4.241345426717708
 40
4.241345426717708
 40
4.241345426717708
 10
-2.033027998263439
 20
-2.369719297152048
 30
0.0
 10
-2.067766785141743
 20
-2.420035472298733
 30
0.0
 10
-2.097501870127339
 20
-2.472034501334845
 30
0.0
 10
-2.182946322891841
 20
-2.659444422087711
 30
0.0
 10
-2.209151776725334
 20
-2.80230494989559
 30
0.0
 10
-2.186668892840645
 20
-3.065824007064623
 30
0.0
 10
-2.147917364420341
 20
-3.186328556424058
 30
0.0
 10
-2.08422516609092
 20
-3.299428134262614
 30
0.0
  0
LINE
  5
D5A
330
CCD
100
AcDbEntity
  8
0
100
AcDbLine
 10
-1.66424323348344
 20
-4.04519889620194
 30
0.0
 11
-2.084225166090912
 21
-3.299428134262623
 31
0.0
  0
LINE
  5
D5B
330
CCD
100
AcDbEntity
  8
0
100
AcDbLine
 10
1.664243233483423
 20
-4.04519889620194
 30
0.0
 11
2.084225166090894
 21
-3.299428134262623
 31
0.0
  0
SPLINE
  5
D5C
330
CCD
100
AcDbEntity
  8
0
100
AcDbSpline
210
0.0
220
0.0
230
1.0
 70
     8
 71
     3
 72
    12
 73
     8
 74
     0
 42
0.000000001
 43
0.0000000001
 40
0.4710435536669816
 40
0.4710435536669816
 40
0.4710435536669816
 40
0.4710435536669816
 40
0.7820503547189968
 40
0.7820503547189968
 40
1.075991789023971
 40
1.075991789023971
 40
1.164704273717284
 40
1.164704273717284
 40
1.164704273717284
 40
1.164704273717284
 10
2.084225166090901
 20
-2.278807408102956
 30
0.0
 10
2.158936633132992
 20
-2.146140682761554
 30
0.0
 10
2.19915360269584
 20
-2.00313505282061
 30
0.0
 10
2.200773793621861
 20
-1.723724171718052
 30
0.0
 10
2.166409101712246
 20
-1.588225295410627
 30
0.0
 10
2.080933970507196
 20
-1.423210947834441
 30
0.0
 10
2.058305425268153
 20
-1.385710771898636
 30
0.0
 10
2.03302799826342
 20
-1.34909857099239
 30
0.0
  0
SPLINE
  5
D5D
330
CCD
100
AcDbEntity
  8
0
100
AcDbSpline
210
0.0
220
0.0
230
1.0
 70
     8
 71
     3
 72
    12
 73
     8
 74
     0
 42
0.000000001
 43
0.0000000001
 40
3.547684706667405
 40
3.547684706667405
 40
3.547684706667405
 40
3.547684706667405
 40
3.669602340872374
 40
3.669602340872374
 40
3.9762093286239
 40
3.9762093286239
 40
4.241345426717708
 40
4.241345426717708
 40
4.241345426717708
 40
4.241345426717708
 10
-2.033027998263439
 20
-1.34909857099239
 30
0.0
 10
-2.067766785141743
 20
-1.399414746139076
 30
0.0
 10
-2.097501870127339
 20
-1.451413775175187
 30
0.0
 10
-2.182946322891841
 20
-1.638823695928053
 30
0.0
 10
-2.209151776725334
 20
-1.781684223735933
 30
0.0
 10
-2.186668892840645
 20
-2.045203280904965
 30
0.0
 10
-2.147917364420341
 20
-2.1657078302644
 30
0.0
 10
-2.08422516609092
 20
-2.278807408102956
 30
0.0
  0
LINE
  5
D5E
330
CCD
100
AcDbEntity
  8
0
100
AcDbLine
 10
-1.66424323348344
 20
-3.024578170042282
 30
0.0
 11
-2.084225166090912
 21
-2.278807408102965
 31
0.0
  0
LINE
  5
D5F
330
CCD
100
AcDbEntity
  8
0
100
AcDbLine
 10
1.664243233483423
 20
-3.024578170042282
 30
0.0
 11
2.084225166090894
 21
-2.278807408102965
 31
0.0
  0
SPLINE
  5
D60
330
CCD
100
AcDbEntity
  8
0
100
AcDbSpline
210
0.0
220
0.0
230
1.0
 70
     8
 71
     3
 72
    12
 73
     8
 74
     0
 42
0.000000001
 43
0.0000000001
 40
0.4710435536669816
 40
0.4710435536669816
 40
0.4710435536669816
 40
0.4710435536669816
 40
0.7820503547189968
 40
0.7820503547189968
 40
1.075991789023971
 40
1.075991789023971
 40
1.164704273717284
 40
1.164704273717284
 40
1.164704273717284
 40
1.164704273717284
 10
2.084225166090901
 20
-1.258186681943298
 30
0.0
 10
2.158936633132992
 20
-1.125519956601896
 30
0.0
 10
2.19915360269584
 20
-0.9825143266609526
 30
0.0
 10
2.200773793621861
 20
-0.7031034455583951
 30
0.0
 10
2.166409101712246
 20
-0.567604569250968
 30
0.0
 10
2.080933970507196
 20
-0.4025902216747812
 30
0.0
 10
2.058305425268153
 20
-0.3650900457389783
 30
0.0
 10
2.03302799826342
 20
-0.328477844832733
 30
0.0
  0
SPLINE
  5
D61
330
CCD
100
AcDbEntity
  8
0
100
AcDbSpline
210
0.0
220
0.0
230
1.0
 70
     8
 71
     3
 72
    12
 73
     8
 74
     0
 42
0.000000001
 43
0.0000000001
 40
3.547684706667405
 40
3.547684706667405
 40
3.547684706667405
 40
3.547684706667405
 40
3.669602340872374
 40
3.669602340872374
 40
3.9762093286239
 40
3.9762093286239
 40
4.241345426717708
 40
4.241345426717708
 40
4.241345426717708
 40
4.241345426717708
 10
-2.033027998263439
 20
-0.328477844832733
 30
0.0
 10
-2.067766785141743
 20
-0.378794019979416
 30
0.0
 10
-2.097501870127339
 20
-0.4307930490155277
 30
0.0
 10
-2.182946322891841
 20
-0.6182029697683933
 30
0.0
 10
-2.209151776725334
 20
-0.7610634975762732
 30
0.0
 10
-2.186668892840645
 20
-1.024582554745308
 30
0.0
 10
-2.147917364420341
 20
-1.145087104104742
 30
0.0
 10
-2.08422516609092
 20
-1.258186681943298
 30
0.0
  0
LINE
  5
D62
330
CCD
100
AcDbEntity
  8
0
100
AcDbLine
 10
-1.66424323348344
 20
-2.003957443882624
 30
0.0
 11
-2.084225166090912
 21
-1.258186681943307
 31
0.0
  0
LINE
  5
D63
330
CCD
100
AcDbEntity
  8
0
100
AcDbLine
 10
1.664243233483423
 20
-2.003957443882624
 30
0.0
 11
2.084225166090894
 21
-1.258186681943307
 31
0.0
  0
SPLINE
  5
D64
330
CCD
100
AcDbEntity
  8
0
100
AcDbSpline
210
0.0
220
0.0
230
1.0
 70
     8
 71
     3
 72
    12
 73
     8
 74
     0
 42
0.000000001
 43
0.0000000001
 40
0.4710435536669816
 40
0.4710435536669816
 40
0.4710435536669816
 40
0.4710435536669816
 40
0.7820503547189968
 40
0.7820503547189968
 40
1.075991789023971
 40
1.075991789023971
 40
1.164704273717284
 40
1.164704273717284
 40
1.164704273717284
 40
1.164704273717284
 10
2.084225166090901
 20
-0.2375659557836385
 30
0.0
 10
2.158936633132992
 20
-0.1048992304422391
 30
0.0
 10
2.19915360269584
 20
0.0381063994987052
 30
0.0
 10
2.200773793621861
 20
0.3175172806012627
 30
0.0
 10
2.166409101712246
 20
0.4530161569086899
 30
0.0
 10
2.080933970507196
 20
0.6180305044848767
 30
0.0
 10
2.058305425268153
 20
0.6555306804206796
 30
0.0
 10
2.03302799826342
 20
0.6921428813269248
 30
0.0
  0
SPLINE
  5
D65
330
CCD
100
AcDbEntity
  8
0
100
AcDbSpline
210
0.0
220
0.0
230
1.0
 70
     8
 71
     3
 72
    12
 73
     8
 74
     0
 42
0.000000001
 43
0.0000000001
 40
3.547684706667405
 40
3.547684706667405
 40
3.547684706667405
 40
3.547684706667405
 40
3.669602340872374
 40
3.669602340872374
 40
3.9762093286239
 40
3.9762093286239
 40
4.241345426717708
 40
4.241345426717708
 40
4.241345426717708
 40
4.241345426717708
 10
-2.033027998263439
 20
0.6921428813269248
 30
0.0
 10
-2.067766785141743
 20
0.6418267061802419
 30
0.0
 10
-2.097501870127339
 20
0.5898276771441302
 30
0.0
 10
-2.182946322891841
 20
0.4024177563912668
 30
0.0
 10
-2.209151776725334
 20
0.2595572285833825
 30
0.0
 10
-2.186668892840645
 20
-0.003961828585648
 30
0.0
 10
-2.147917364420341
 20
-0.1244663779450872
 30
0.0
 10
-2.08422516609092
 20
-0.2375659557836385
 30
0.0
  0
LINE
  5
D66
330
CCD
100
AcDbEntity
  8
0
100
AcDbLine
 10
-1.66424323348344
 20
-0.9833367177229668
 30
0.0
 11
-2.084225166090912
 21
-0.2375659557836518
 31
0.0
  0
LINE
  5
D67
330
CCD
100
AcDbEntity
  8
0
100
AcDbLine
 10
1.664243233483423
 20
-0.9833367177229668
 30
0.0
 11
2.084225166090894
 21
-0.2375659557836518
 31
0.0
  0
SPLINE
  5
D68
330
CCD
100
AcDbEntity
  8
0
100
AcDbSpline
210
0.0
220
0.0
230
1.0
 70
     8
 71
     3
 72
    12
 73
     8
 74
     0
 42
0.000000001
 43
0.0000000001
 40
0.4710435536669816
 40
0.4710435536669816
 40
0.4710435536669816
 40
0.4710435536669816
 40
0.7820503547189968
 40
0.7820503547189968
 40
1.075991789023971
 40
1.075991789023971
 40
1.164704273717284
 40
1.164704273717284
 40
1.164704273717284
 40
1.164704273717284
 10
2.084225166090901
 20
0.7830547703760194
 30
0.0
 10
2.158936633132992
 20
0.9157214957174186
 30
0.0
 10
2.19915360269584
 20
1.058727125658363
 30
0.0
 10
2.200773793621861
 20
1.33813800676092
 30
0.0
 10
2.166409101712246
 20
1.473636883068347
 30
0.0
 10
2.080933970507196
 20
1.638651230644534
 30
0.0
 10
2.058305425268153
 20
1.676151406580337
 30
0.0
 10
2.03302799826342
 20
1.712763607486582
 30
0.0
  0
SPLINE
  5
D69
330
CCD
100
AcDbEntity
  8
0
100
AcDbSpline
210
0.0
220
0.0
230
1.0
 70
     8
 71
     3
 72
    12
 73
     8
 74
     0
 42
0.000000001
 43
0.0000000001
 40
3.547684706667405
 40
3.547684706667405
 40
3.547684706667405
 40
3.547684706667405
 40
3.669602340872374
 40
3.669602340872374
 40
3.9762093286239
 40
3.9762093286239
 40
4.241345426717708
 40
4.241345426717708
 40
4.241345426717708
 40
4.241345426717708
 10
-2.033027998263439
 20
1.712763607486582
 30
0.0
 10
-2.067766785141743
 20
1.662447432339899
 30
0.0
 10
-2.097501870127339
 20
1.610448403303788
 30
0.0
 10
-2.182946322891841
 20
1.423038482550924
 30
0.0
 10
-2.209151776725334
 20
1.28017795474304
 30
0.0
 10
-2.186668892840645
 20
1.016658897574009
 30
0.0
 10
-2.147917364420341
 20
0.8961543482145707
 30
0.0
 10
-2.08422516609092
 20
0.7830547703760194
 30
0.0
  0
LINE
  5
D6A
330
CCD
100
AcDbEntity
  8
0
100
AcDbLine
 10
-1.66424323348344
 20
0.037284008436691
 30
0.0
 11
-2.084225166090912
 21
0.7830547703760061
 31
0.0
  0
LINE
  5
D6B
330
CCD
100
AcDbEntity
  8
0
100
AcDbLine
 10
1.664243233483423
 20
0.037284008436691
 30
0.0
 11
2.084225166090894
 21
0.7830547703760061
 31
0.0
  0
SPLINE
  5
D6C
330
CCD
100
AcDbEntity
  8
0
100
AcDbSpline
210
0.0
220
0.0
230
1.0
 70
     8
 71
     3
 72
    12
 73
     8
 74
     0
 42
0.000000001
 43
0.0000000001
 40
0.4710435536669816
 40
0.4710435536669816
 40
0.4710435536669816
 40
0.4710435536669816
 40
0.7820503547189968
 40
0.7820503547189968
 40
1.075991789023971
 40
1.075991789023971
 40
1.164704273717284
 40
1.164704273717284
 40
1.164704273717284
 40
1.164704273717284
 10
2.084225166090901
 20
1.803675496535677
 30
0.0
 10
2.158936633132992
 20
1.936342221877076
 30
0.0
 10
2.19915360269584
 20
2.07934785181802
 30
0.0
 10
2.200773793621861
 20
2.358758732920578
 30
0.0
 10
2.166409101712246
 20
2.494257609228005
 30
0.0
 10
2.080933970507196
 20
2.659271956804192
 30
0.0
 10
2.058305425268153
 20
2.696772132739995
 30
0.0
 10
2.03302799826342
 20
2.73338433364624
 30
0.0
  0
SPLINE
  5
D6D
330
CCD
100
AcDbEntity
  8
0
100
AcDbSpline
210
0.0
220
0.0
230
1.0
 70
     8
 71
     3
 72
    12
 73
     8
 74
     0
 42
0.000000001
 43
0.0000000001
 40
3.547684706667405
 40
3.547684706667405
 40
3.547684706667405
 40
3.547684706667405
 40
3.669602340872374
 40
3.669602340872374
 40
3.9762093286239
 40
3.9762093286239
 40
4.241345426717708
 40
4.241345426717708
 40
4.241345426717708
 40
4.241345426717708
 10
-2.033027998263439
 20
2.73338433364624
 30
0.0
 10
-2.067766785141743
 20
2.683068158499557
 30
0.0
 10
-2.097501870127339
 20
2.631069129463445
 30
0.0
 10
-2.182946322891841
 20
2.443659208710582
 30
0.0
 10
-2.209151776725334
 20
2.300798680902698
 30
0.0
 10
-2.186668892840645
 20
2.037279623733667
 30
0.0
 10
-2.147917364420341
 20
1.916775074374228
 30
0.0
 10
-2.08422516609092
 20
1.803675496535677
 30
0.0
  0
LINE
  5
D6E
330
CCD
100
AcDbEntity
  8
0
100
AcDbLine
 10
-1.66424323348344
 20
1.057904734596348
 30
0.0
 11
-2.084225166090912
 21
1.803675496535663
 31
0.0
  0
LINE
  5
D6F
330
CCD
100
AcDbEntity
  8
0
100
AcDbLine
 10
1.664243233483423
 20
1.057904734596348
 30
0.0
 11
2.084225166090894
 21
1.803675496535663
 31
0.0
  0
SPLINE
  5
D70
330
CCD
100
AcDbEntity
  8
0
100
AcDbSpline
210
0.0
220
0.0
230
1.0
 70
     8
 71
     3
 72
    12
 73
     8
 74
     0
 42
0.000000001
 43
0.0000000001
 40
0.4710435536669816
 40
0.4710435536669816
 40
0.4710435536669816
 40
0.4710435536669816
 40
0.7820503547189968
 40
0.7820503547189968
 40
1.075991789023971
 40
1.075991789023971
 40
1.164704273717284
 40
1.164704273717284
 40
1.164704273717284
 40
1.164704273717284
 10
2.084225166090901
 20
2.824296222695334
 30
0.0
 10
2.158936633132992
 20
2.956962948036734
 30
0.0
 10
2.19915360269584
 20
3.099968577977678
 30
0.0
 10
2.200773793621861
 20
3.379379459080238
 30
0.0
 10
2.166409101712246
 20
3.514878335387663
 30
0.0
 10
2.080933970507196
 20
3.67989268296385
 30
0.0
 10
2.058305425268153
 20
3.717392858899655
 30
0.0
 10
2.03302799826342
 20
3.754005059805898
 30
0.0
  0
SPLINE
  5
D71
330
CCD
100
AcDbEntity
  8
0
100
AcDbSpline
210
0.0
220
0.0
230
1.0
 70
     8
 71
     3
 72
    12
 73
     8
 74
     0
 42
0.000000001
 43
0.0000000001
 40
3.547684706667405
 40
3.547684706667405
 40
3.547684706667405
 40
3.547684706667405
 40
3.669602340872374
 40
3.669602340872374
 40
3.9762093286239
 40
3.9762093286239
 40
4.241345426717708
 40
4.241345426717708
 40
4.241345426717708
 40
4.241345426717708
 10
-2.033027998263439
 20
3.754005059805898
 30
0.0
 10
-2.067766785141742
 20
3.703688884659215
 30
0.0
 10
-2.097501870127339
 20
3.651689855623103
 30
0.0
 10
-2.182946322891841
 20
3.464279934870237
 30
0.0
 10
-2.209151776725334
 20
3.32141940706236
 30
0.0
 10
-2.186668892840645
 20
3.057900349893325
 30
0.0
 10
-2.147917364420341
 20
2.937395800533888
 30
0.0
 10
-2.08422516609092
 20
2.824296222695334
 30
0.0
  0
LINE
  5
D72
330
CCD
100
AcDbEntity
  8
0
100
AcDbLine
 10
-1.66424323348344
 20
2.078525460756006
 30
0.0
 11
-2.084225166090912
 21
2.824296222695321
 31
0.0
  0
LINE
  5
D73
330
CCD
100
AcDbEntity
  8
0
100
AcDbLine
 10
1.664243233483423
 20
2.078525460756006
 30
0.0
 11
2.084225166090894
 21
2.824296222695321
 31
0.0
  0
SPLINE
  5
D74
330
CCD
100
AcDbEntity
  8
0
100
AcDbSpline
210
0.0
220
0.0
230
1.0
 70
     8
 71
     3
 72
    12
 73
     8
 74
     0
 42
0.000000001
 43
0.0000000001
 40
0.4710435536669816
 40
0.4710435536669816
 40
0.4710435536669816
 40
0.4710435536669816
 40
0.7820503547189968
 40
0.7820503547189968
 40
1.075991789023971
 40
1.075991789023971
 40
1.164704273717284
 40
1.164704273717284
 40
1.164704273717284
 40
1.164704273717284
 10
2.084225166090901
 20
3.844916948854992
 30
0.0
 10
2.158936633132992
 20
3.977583674196392
 30
0.0
 10
2.19915360269584
 20
4.120589304137336
 30
0.0
 10
2.200773793621861
 20
4.400000185239896
 30
0.0
 10
2.166409101712246
 20
4.535499061547321
 30
0.0
 10
2.080933970507196
 20
4.700513409123507
 30
0.0
 10
2.058305425268153
 20
4.738013585059313
 30
0.0
 10
2.03302799826342
 20
4.774625785965556
 30
0.0
  0
SPLINE
  5
D75
330
CCD
100
AcDbEntity
  8
0
100
AcDbSpline
210
0.0
220
0.0
230
1.0
 70
     8
 71
     3
 72
    12
 73
     8
 74
     0
 42
0.000000001
 43
0.0000000001
 40
3.547684706667405
 40
3.547684706667405
 40
3.547684706667405
 40
3.547684706667405
 40
3.669602340872374
 40
3.669602340872374
 40
3.9762093286239
 40
3.9762093286239
 40
4.241345426717708
 40
4.241345426717708
 40
4.241345426717708
 40
4.241345426717708
 10
-2.033027998263439
 20
4.774625785965556
 30
0.0
 10
-2.067766785141742
 20
4.724309610818872
 30
0.0
 10
-2.097501870127339
 20
4.672310581782761
 30
0.0
 10
-2.182946322891841
 20
4.484900661029895
 30
0.0
 10
-2.209151776725334
 20
4.342040133222018
 30
0.0
 10
-2.186668892840645
 20
4.078521076052982
 30
0.0
 10
-2.147917364420341
 20
3.958016526693546
 30
0.0
 10
-2.08422516609092
 20
3.844916948854992
 30
0.0
  0
LINE
  5
D76
330
CCD
100
AcDbEntity
  8
0
100
AcDbLine
 10
-1.66424323348344
 20
3.099146186915664
 30
0.0
 11
-2.084225166090912
 21
3.844916948854979
 31
0.0
  0
LINE
  5
D77
330
CCD
100
AcDbEntity
  8
0
100
AcDbLine
 10
1.664243233483423
 20
3.099146186915664
 30
0.0
 11
2.084225166090894
 21
3.844916948854979
 31
0.0
  0
SPLINE
  5
D78
330
CCD
100
AcDbEntity
  8
0
100
AcDbSpline
210
0.0
220
0.0
230
1.0
 70
     8
 71
     3
 72
    12
 73
     8
 74
     0
 42
0.000000001
 43
0.0000000001
 40
0.4710435536669816
 40
0.4710435536669816
 40
0.4710435536669816
 40
0.4710435536669816
 40
0.7820503547189968
 40
0.7820503547189968
 40
1.075991789023971
 40
1.075991789023971
 40
1.164704273717284
 40
1.164704273717284
 40
1.164704273717284
 40
1.164704273717284
 10
2.084225166090901
 20
4.86553767501465
 30
0.0
 10
2.158936633132992
 20
4.998204400356049
 30
0.0
 10
2.19915360269584
 20
5.141210030296994
 30
0.0
 10
2.200773793621861
 20
5.420620911399554
 30
0.0
 10
2.166409101712246
 20
5.556119787706979
 30
0.0
 10
2.080933970507196
 20
5.721134135283165
 30
0.0
 10
2.058305425268153
 20
5.758634311218971
 30
0.0
 10
2.03302799826342
 20
5.795246512125213
 30
0.0
  0
SPLINE
  5
D79
330
CCD
100
AcDbEntity
  8
0
100
AcDbSpline
210
0.0
220
0.0
230
1.0
 70
     8
 71
     3
 72
    12
 73
     8
 74
     0
 42
0.000000001
 43
0.0000000001
 40
3.547684706667405
 40
3.547684706667405
 40
3.547684706667405
 40
3.547684706667405
 40
3.669602340872374
 40
3.669602340872374
 40
3.9762093286239
 40
3.9762093286239
 40
4.241345426717708
 40
4.241345426717708
 40
4.241345426717708
 40
4.241345426717708
 10
-2.033027998263439
 20
5.795246512125213
 30
0.0
 10
-2.067766785141742
 20
5.74493033697853
 30
0.0
 10
-2.097501870127339
 20
5.692931307942419
 30
0.0
 10
-2.182946322891841
 20
5.505521387189553
 30
0.0
 10
-2.209151776725334
 20
5.362660859381676
 30
0.0
 10
-2.186668892840645
 20
5.09914180221264
 30
0.0
 10
-2.147917364420341
 20
4.978637252853204
 30
0.0
 10
-2.08422516609092
 20
4.86553767501465
 30
0.0
  0
LINE
  5
D7A
330
CCD
100
AcDbEntity
  8
0
100
AcDbLine
 10
-1.66424323348344
 20
4.119766913075322
 30
0.0
 11
-2.084225166090912
 21
4.865537675014637
 31
0.0
  0
LINE
  5
D7B
330
CCD
100
AcDbEntity
  8
0
100
AcDbLine
 10
1.664243233483423
 20
4.119766913075322
 30
0.0
 11
2.084225166090894
 21
4.865537675014637
 31
0.0
  0
SPLINE
  5
D7C
330
CCD
100
AcDbEntity
  8
0
100
AcDbSpline
210
0.0
220
0.0
230
1.0
 70
     8
 71
     3
 72
    12
 73
     8
 74
     0
 42
0.000000001
 43
0.0000000001
 40
0.4710435536669816
 40
0.4710435536669816
 40
0.4710435536669816
 40
0.4710435536669816
 40
0.7820503547189968
 40
0.7820503547189968
 40
1.075991789023971
 40
1.075991789023971
 40
1.164704273717284
 40
1.164704273717284
 40
1.164704273717284
 40
1.164704273717284
 10
2.084225166090901
 20
5.886158401174307
 30
0.0
 10
2.158936633132992
 20
6.018825126515707
 30
0.0
 10
2.19915360269584
 20
6.161830756456652
 30
0.0
 10
2.200773793621861
 20
6.441241637559212
 30
0.0
 10
2.166409101712246
 20
6.576740513866637
 30
0.0
 10
2.080933970507196
 20
6.741754861442823
 30
0.0
 10
2.058305425268153
 20
6.779255037378629
 30
0.0
 10
2.03302799826342
 20
6.815867238284873
 30
0.0
  0
SPLINE
  5
D7D
330
CCD
100
AcDbEntity
  8
0
100
AcDbSpline
210
0.0
220
0.0
230
1.0
 70
     8
 71
     3
 72
    12
 73
     8
 74
     0
 42
0.000000001
 43
0.0000000001
 40
3.547684706667405
 40
3.547684706667405
 40
3.547684706667405
 40
3.547684706667405
 40
3.669602340872374
 40
3.669602340872374
 40
3.9762093286239
 40
3.9762093286239
 40
4.241345426717708
 40
4.241345426717708
 40
4.241345426717708
 40
4.241345426717708
 10
-2.033027998263439
 20
6.815867238284871
 30
0.0
 10
-2.067766785141742
 20
6.765551063138188
 30
0.0
 10
-2.097501870127339
 20
6.713552034102077
 30
0.0
 10
-2.182946322891841
 20
6.526142113349211
 30
0.0
 10
-2.209151776725334
 20
6.383281585541333
 30
0.0
 10
-2.186668892840645
 20
6.119762528372298
 30
0.0
 10
-2.147917364420341
 20
5.999257979012861
 30
0.0
 10
-2.08422516609092
 20
5.886158401174307
 30
0.0
  0
LINE
  5
D7E
330
CCD
100
AcDbEntity
  8
0
100
AcDbLine
 10
-1.66424323348344
 20
5.14038763923498
 30
0.0
 11
-2.084225166090912
 21
5.886158401174295
 31
0.0
  0
LINE
  5
D7F
330
CCD
100
AcDbEntity
  8
0
100
AcDbLine
 10
1.664243233483423
 20
5.14038763923498
 30
0.0
 11
2.084225166090894
 21
5.886158401174295
 31
0.0
  0
SPLINE
  5
D80
330
CCD
100
AcDbEntity
  8
0
100
AcDbSpline
210
0.0
220
0.0
230
1.0
 70
     8
 71
     3
 72
    12
 73
     8
 74
     0
 42
0.000000001
 43
0.0000000001
 40
0.4710435536669816
 40
0.4710435536669816
 40
0.4710435536669816
 40
0.4710435536669816
 40
0.7820503547189968
 40
0.7820503547189968
 40
1.075991789023971
 40
1.075991789023971
 40
1.164704273717284
 40
1.164704273717284
 40
1.164704273717284
 40
1.164704273717284
 10
2.084225166090901
 20
6.906779127333965
 30
0.0
 10
2.158936633132992
 20
7.039445852675365
 30
0.0
 10
2.19915360269584
 20
7.182451482616309
 30
0.0
 10
2.200773793621861
 20
7.46186236371887
 30
0.0
 10
2.166409101712246
 20
7.597361240026295
 30
0.0
 10
2.080933970507196
 20
7.76237558760248
 30
0.0
 10
2.058305425268153
 20
7.799875763538286
 30
0.0
 10
2.03302799826342
 20
7.836487964444529
 30
0.0
  0
SPLINE
  5
D81
330
CCD
100
AcDbEntity
  8
0
100
AcDbSpline
210
0.0
220
0.0
230
1.0
 70
     8
 71
     3
 72
    12
 73
     8
 74
     0
 42
0.000000001
 43
0.0000000001
 40
3.547684706667405
 40
3.547684706667405
 40
3.547684706667405
 40
3.547684706667405
 40
3.669602340872374
 40
3.669602340872374
 40
3.9762093286239
 40
3.9762093286239
 40
4.241345426717708
 40
4.241345426717708
 40
4.241345426717708
 40
4.241345426717708
 10
-2.033027998263439
 20
7.836487964444529
 30
0.0
 10
-2.067766785141742
 20
7.786171789297846
 30
0.0
 10
-2.097501870127339
 20
7.734172760261735
 30
0.0
 10
-2.182946322891841
 20
7.546762839508868
 30
0.0
 10
-2.209151776725334
 20
7.403902311700991
 30
0.0
 10
-2.186668892840645
 20
7.140383254531956
 30
0.0
 10
-2.147917364420341
 20
7.019878705172519
 30
0.0
 10
-2.08422516609092
 20
6.906779127333965
 30
0.0
  0
LINE
  5
D82
330
CCD
100
AcDbEntity
  8
0
100
AcDbLine
 10
-1.66424323348344
 20
6.161008365394637
 30
0.0
 11
-2.084225166090912
 21
6.906779127333953
 31
0.0
  0
LINE
  5
D83
330
CCD
100
AcDbEntity
  8
0
100
AcDbLine
 10
1.664243233483423
 20
6.161008365394637
 30
0.0
 11
2.084225166090894
 21
6.906779127333953
 31
0.0
  0
SPLINE
  5
D84
330
CCD
100
AcDbEntity
  8
0
100
AcDbSpline
210
0.0
220
0.0
230
1.0
 70
     8
 71
     3
 72
    12
 73
     8
 74
     0
 42
0.000000001
 43
0.0000000001
 40
0.4710435536669816
 40
0.4710435536669816
 40
0.4710435536669816
 40
0.4710435536669816
 40
0.7820503547189968
 40
0.7820503547189968
 40
1.075991789023971
 40
1.075991789023971
 40
1.164704273717284
 40
1.164704273717284
 40
1.164704273717284
 40
1.164704273717284
 10
2.084225166090901
 20
7.927399853493623
 30
0.0
 10
2.158936633132992
 20
8.060066578835023
 30
0.0
 10
2.19915360269584
 20
8.203072208775967
 30
0.0
 10
2.200773793621861
 20
8.482483089878527
 30
0.0
 10
2.166409101712246
 20
8.617981966185952
 30
0.0
 10
2.080933970507196
 20
8.782996313762138
 30
0.0
 10
2.058305425268153
 20
8.820496489697944
 30
0.0
 10
2.03302799826342
 20
8.857108690604187
 30
0.0
  0
SPLINE
  5
D85
330
CCD
100
AcDbEntity
  8
0
100
AcDbSpline
210
0.0
220
0.0
230
1.0
 70
     8
 71
     3
 72
    12
 73
     8
 74
     0
 42
0.000000001
 43
0.0000000001
 40
3.547684706667405
 40
3.547684706667405
 40
3.547684706667405
 40
3.547684706667405
 40
3.669602340872374
 40
3.669602340872374
 40
3.9762093286239
 40
3.9762093286239
 40
4.241345426717708
 40
4.241345426717708
 40
4.241345426717708
 40
4.241345426717708
 10
-2.033027998263439
 20
8.857108690604187
 30
0.0
 10
-2.067766785141742
 20
8.806792515457503
 30
0.0
 10
-2.097501870127339
 20
8.754793486421393
 30
0.0
 10
-2.182946322891841
 20
8.567383565668526
 30
0.0
 10
-2.209151776725334
 20
8.424523037860648
 30
0.0
 10
-2.186668892840645
 20
8.161003980691614
 30
0.0
 10
-2.147917364420341
 20
8.040499431332177
 30
0.0
 10
-2.08422516609092
 20
7.927399853493623
 30
0.0
  0
LINE
  5
D86
330
CCD
100
AcDbEntity
  8
0
100
AcDbLine
 10
-1.66424323348344
 20
7.181629091554295
 30
0.0
 11
-2.084225166090912
 21
7.927399853493611
 31
0.0
  0
LINE
  5
D87
330
CCD
100
AcDbEntity
  8
0
100
AcDbLine
 10
1.664243233483423
 20
7.181629091554295
 30
0.0
 11
2.084225166090894
 21
7.927399853493611
 31
0.0
  0
SPLINE
  5
D88
330
CCD
100
AcDbEntity
  8
0
100
AcDbSpline
210
0.0
220
0.0
230
1.0
 70
     8
 71
     3
 72
    12
 73
     8
 74
     0
 42
0.000000001
 43
0.0000000001
 40
0.4710435536669816
 40
0.4710435536669816
 40
0.4710435536669816
 40
0.4710435536669816
 40
0.7820503547189968
 40
0.7820503547189968
 40
1.075991789023971
 40
1.075991789023971
 40
1.164704273717284
 40
1.164704273717284
 40
1.164704273717284
 40
1.164704273717284
 10
2.084225166090901
 20
8.948020579653281
 30
0.0
 10
2.158936633132992
 20
9.080687304994681
 30
0.0
 10
2.19915360269584
 20
9.223692934935627
 30
0.0
 10
2.200773793621861
 20
9.503103816038183
 30
0.0
 10
2.166409101712246
 20
9.638602692345608
 30
0.0
 10
2.080933970507196
 20
9.803617039921796
 30
0.0
 10
2.058305425268153
 20
9.841117215857602
 30
0.0
 10
2.03302799826342
 20
9.877729416763845
 30
0.0
  0
SPLINE
  5
D89
330
CCD
100
AcDbEntity
  8
0
100
AcDbSpline
210
0.0
220
0.0
230
1.0
 70
     8
 71
     3
 72
    12
 73
     8
 74
     0
 42
0.000000001
 43
0.0000000001
 40
3.547684706667405
 40
3.547684706667405
 40
3.547684706667405
 40
3.547684706667405
 40
3.669602340872374
 40
3.669602340872374
 40
3.9762093286239
 40
3.9762093286239
 40
4.241345426717708
 40
4.241345426717708
 40
4.241345426717708
 40
4.241345426717708
 10
-2.033027998263439
 20
9.877729416763845
 30
0.0
 10
-2.067766785141742
 20
9.827413241617161
 30
0.0
 10
-2.097501870127339
 20
9.775414212581049
 30
0.0
 10
-2.182946322891841
 20
9.588004291828184
 30
0.0
 10
-2.209151776725334
 20
9.445143764020308
 30
0.0
 10
-2.186668892840645
 20
9.18162470685127
 30
0.0
 10
-2.147917364420341
 20
9.061120157491835
 30
0.0
 10
-2.08422516609092
 20
8.948020579653281
 30
0.0
  0
LINE
  5
D8A
330
CCD
100
AcDbEntity
  8
0
100
AcDbLine
 10
-1.66424323348344
 20
8.202249817713953
 30
0.0
 11
-2.084225166090912
 21
8.94802057965327
 31
0.0
  0
LINE
  5
D8B
330
CCD
100
AcDbEntity
  8
0
100
AcDbLine
 10
1.664243233483423
 20
8.202249817713953
 30
0.0
 11
2.084225166090894
 21
8.94802057965327
 31
0.0
  0
SPLINE
  5
D8C
330
CCD
100
AcDbEntity
  8
0
100
AcDbSpline
210
0.0
220
0.0
230
1.0
 70
     8
 71
     3
 72
    12
 73
     8
 74
     0
 42
0.000000001
 43
0.0000000001
 40
0.471043553666982
 40
0.471043553666982
 40
0.471043553666982
 40
0.471043553666982
 40
0.7820503547189972
 40
0.7820503547189972
 40
1.075991789023972
 40
1.075991789023972
 40
1.164704273717284
 40
1.164704273717284
 40
1.164704273717284
 40
1.164704273717284
 10
2.084225166090902
 20
9.968641305812941
 30
0.0
 10
2.158936633132992
 20
10.10130803115434
 30
0.0
 10
2.19915360269584
 20
10.24431366109528
 30
0.0
 10
2.200773793621861
 20
10.52372454219784
 30
0.0
 10
2.166409101712245
 20
10.65922341850527
 30
0.0
 10
2.080933970507196
 20
10.82423776608145
 30
0.0
 10
2.058305425268153
 20
10.86173794201726
 30
0.0
 10
2.03302799826342
 20
10.8983501429235
 30
0.0
  0
SPLINE
  5
D8D
330
CCD
100
AcDbEntity
  8
0
100
AcDbSpline
210
0.0
220
0.0
230
1.0
 70
     8
 71
     3
 72
    12
 73
     8
 74
     0
 42
0.000000001
 43
0.0000000001
 40
3.547684706667405
 40
3.547684706667405
 40
3.547684706667405
 40
3.547684706667405
 40
3.669602340872375
 40
3.669602340872375
 40
3.9762093286239
 40
3.9762093286239
 40
4.241345426717707
 40
4.241345426717707
 40
4.241345426717707
 40
4.241345426717707
 10
-2.033027998263439
 20
10.8983501429235
 30
0.0
 10
-2.067766785141742
 20
10.84803396777681
 30
0.0
 10
-2.097501870127339
 20
10.79603493874071
 30
0.0
 10
-2.182946322891841
 20
10.60862501798784
 30
0.0
 10
-2.209151776725334
 20
10.46576449017996
 30
0.0
 10
-2.186668892840646
 20
10.20224543301093
 30
0.0
 10
-2.147917364420341
 20
10.08174088365149
 30
0.0
 10
-2.08422516609092
 20
9.968641305812941
 30
0.0
  0
LINE
  5
D8E
330
CCD
100
AcDbEntity
  8
0
100
AcDbLine
 10
-1.66424323348344
 20
9.222870543873613
 30
0.0
 11
-2.084225166090912
 21
9.968641305812926
 31
0.0
  0
LINE
  5
D8F
330
CCD
100
AcDbEntity
  8
0
100
AcDbLine
 10
1.664243233483423
 20
9.222870543873613
 30
0.0
 11
2.084225166090894
 21
9.968641305812926
 31
0.0
  0
SPLINE
  5
D90
330
CCD
100
AcDbEntity
  8
0
100
AcDbSpline
210
0.0
220
0.0
230
1.0
 70
     8
 71
     3
 72
    12
 73
     8
 74
     0
 42
0.000000001
 43
0.0000000001
 40
0.471043553666982
 40
0.471043553666982
 40
0.471043553666982
 40
0.471043553666982
 40
0.7820503547189972
 40
0.7820503547189972
 40
1.075991789023972
 40
1.075991789023972
 40
1.164704273717284
 40
1.164704273717284
 40
1.164704273717284
 40
1.164704273717284
 10
2.084225166090902
 20
10.9892620319726
 30
0.0
 10
2.158936633132992
 20
11.12192875731399
 30
0.0
 10
2.19915360269584
 20
11.26493438725494
 30
0.0
 10
2.200773793621861
 20
11.5443452683575
 30
0.0
 10
2.166409101712245
 20
11.67984414466492
 30
0.0
 10
2.080933970507196
 20
11.84485849224111
 30
0.0
 10
2.058305425268153
 20
11.88235866817691
 30
0.0
 10
2.033027998263421
 20
11.91897086908316
 30
0.0
  0
SPLINE
  5
D91
330
CCD
100
AcDbEntity
  8
0
100
AcDbSpline
210
0.0
220
0.0
230
1.0
 70
     8
 71
     3
 72
    12
 73
     8
 74
     0
 42
0.000000001
 43
0.0000000001
 40
3.547684706667405
 40
3.547684706667405
 40
3.547684706667405
 40
3.547684706667405
 40
3.669602340872375
 40
3.669602340872375
 40
3.9762093286239
 40
3.9762093286239
 40
4.241345426717707
 40
4.241345426717707
 40
4.241345426717707
 40
4.241345426717707
 10
-2.033027998263439
 20
11.91897086908316
 30
0.0
 10
-2.067766785141742
 20
11.86865469393647
 30
0.0
 10
-2.097501870127339
 20
11.81665566490036
 30
0.0
 10
-2.182946322891841
 20
11.6292457441475
 30
0.0
 10
-2.209151776725334
 20
11.48638521633962
 30
0.0
 10
-2.186668892840646
 20
11.22286615917059
 30
0.0
 10
-2.147917364420341
 20
11.10236160981115
 30
0.0
 10
-2.08422516609092
 20
10.9892620319726
 30
0.0
  0
LINE
  5
D92
330
CCD
100
AcDbEntity
  8
0
100
AcDbLine
 10
-1.66424323348344
 20
10.24349127003327
 30
0.0
 11
-2.084225166090912
 21
10.98926203197258
 31
0.0
  0
LINE
  5
D93
330
CCD
100
AcDbEntity
  8
0
100
AcDbLine
 10
1.664243233483423
 20
10.24349127003327
 30
0.0
 11
2.084225166090894
 21
10.98926203197258
 31
0.0
  0
SPLINE
  5
D94
330
CCD
100
AcDbEntity
  8
0
100
AcDbSpline
210
0.0
220
0.0
230
1.0
 70
     8
 71
     3
 72
    12
 73
     8
 74
     0
 42
0.000000001
 43
0.0000000001
 40
0.471043553666982
 40
0.471043553666982
 40
0.471043553666982
 40
0.471043553666982
 40
0.7820503547189972
 40
0.7820503547189972
 40
1.075991789023972
 40
1.075991789023972
 40
1.206105402486821
 40
1.206105402486821
 40
1.206105402486821
 40
1.206105402486821
 10
2.084225166090902
 20
12.00988275813225
 30
0.0
 10
2.158936633132992
 20
12.14254948347365
 30
0.0
 10
2.19915360269584
 20
12.2855551134146
 30
0.0
 10
2.200773793621861
 20
12.56496599451715
 30
0.0
 10
2.166409101712245
 20
12.70046487082458
 30
0.0
 10
2.071686013703625
 20
12.8833328974398
 30
0.0
 10
2.036571803740089
 20
12.93780963007072
 30
0.0
 10
1.995923874905537
 20
12.99026154362259
 30
0.0
  0
SPLINE
  5
D95
330
CCD
100
AcDbEntity
  8
0
100
AcDbSpline
210
0.0
220
0.0
230
1.0
 70
     8
 71
     3
 72
    12
 73
     8
 74
     0
 42
0.000000001
 43
0.0000000001
 40
3.506283577897867
 40
3.506283577897867
 40
3.506283577897867
 40
3.506283577897867
 40
3.669602340872375
 40
3.669602340872375
 40
3.9762093286239
 40
3.9762093286239
 40
4.241345426717707
 40
4.241345426717707
 40
4.241345426717707
 40
4.241345426717707
 10
-1.995923874905554
 20
12.99026154362259
 30
0.0
 10
-2.046945203712399
 20
12.92442383910458
 30
0.0
 10
-2.089246809367015
 20
12.85538266048826
 30
0.0
 10
-2.182946322891841
 20
12.64986647030716
 30
0.0
 10
-2.209151776725334
 20
12.50700594249928
 30
0.0
 10
-2.186668892840646
 20
12.24348688533024
 30
0.0
 10
-2.147917364420341
 20
12.12298233597081
 30
0.0
 10
-2.08422516609092
 20
12.00988275813225
 30
0.0
  0
LINE
  5
D96
330
CCD
100
AcDbEntity
  8
0
100
AcDbLine
 10
-1.66424323348344
 20
11.26411199619292
 30
0.0
 11
-2.084225166090912
 21
12.00988275813224
 31
0.0
  0
LINE
  5
D97
330
CCD
100
AcDbEntity
  8
0
100
AcDbLine
 10
1.664243233483423
 20
11.26411199619292
 30
0.0
 11
2.084225166090894
 21
12.00988275813224
 31
0.0
  0
LINE
  5
D98
330
CCD
100
AcDbEntity
  8
0
100
AcDbLine
 10
-0.9523371523777544
 20
-17.12523751440523
 30
0.0
 11
-1.98319286712137
 21
-16.53007269000234
 31
0.0
  0
LINE
  5
D99
330
CCD
100
AcDbEntity
  8
0
100
AcDbLine
 10
0.0
 20
-18.41715068635442
 30
0.0
 11
0.0
 21
-20.49406418128594
 31
0.0
  0
LINE
  5
D9A
330
CCD
100
AcDbEntity
  8
0
100
AcDbLine
 10
0.1414213562373016
 20
-20.41241452319316
 30
0.0
 11
2.199999999999992
 21
-17.14698009413725
 31
0.0
  0
ELLIPSE
  5
D9B
330
CCD
100
AcDbEntity
  8
0
100
AcDbEllipse
 10
-0.0000000000000089
 20
-20.63674511510924
 30
0.0
 11
1.977122509811719
 21
-4.109694268101523
 31
0.0
210
0.0
220
0.0
230
1.0
 40
0.2347805934183502
 41
3.147925111265216
 42
3.595610874939638
  0
LINE
  5
D9C
330
CCD
100
AcDbEntity
  8
0
100
AcDbLine
 10
-2.200000000000009
 20
-17.14698009413725
 30
0.0
 11
-0.1414213562373193
 21
-20.41241452319316
 31
0.0
  0
LINE
  5
D9D
330
CCD
100
AcDbEntity
  8
0
100
AcDbLine
 10
0.0
 20
-20.49406418128594
 30
0.0
 11
-0.1414213562373194
 21
-20.41241452319316
 31
0.0
  0
ELLIPSE
  5
D9E
330
CCD
100
AcDbEntity
  8
0
100
AcDbEllipse
 10
-0.0000000000000089
 20
-20.63674511510924
 30
0.0
 11
1.977122509811719
 21
-4.109694268101523
 31
0.0
210
0.0
220
0.0
230
1.0
 40
0.2347805934183502
 41
2.024814548144744
 42
2.472500311819165
  0
LINE
  5
D9F
330
CCD
100
AcDbEntity
  8
0
100
AcDbLine
 10
1.983192867121353
 20
-16.53007269000234
 30
0.0
 11
0.9523371523777363
 21
-17.12523751440523
 31
0.0
  0
ELLIPSE
  5
DA0
330
CCD
100
AcDbEntity
  8
0
100
AcDbEllipse
 10
-0.0000000000000089
 20
-20.63674511510924
 30
0.0
 11
1.977122509811719
 21
4.109694268101521
 31
0.0
210
0.0
220
0.0
230
1.0
 40
0.2347805934183503
 41
0.6690923417706252
 42
1.116778105445046
  0
LINE
  5
DA1
330
CCD
100
AcDbEntity
  8
0
100
AcDbLine
 10
0.1414213562373016
 20
-20.41241452319316
 30
0.0
 11
0.0
 21
-20.49406418128594
 31
0.0
  0
ELLIPSE
  5
DA2
330
CCD
100
AcDbEntity
  8
0
100
AcDbEllipse
 10
-0.0000000000000089
 20
-20.63674511510924
 30
0.0
 11
1.977122509811719
 21
4.109694268101521
 31
0.0
210
0.0
220
0.0
230
1.0
 40
0.2347805934183503
 41
5.829167085829734
 42
6.276852849504157
  0
ELLIPSE
  5
DA3
330
CCD
100
AcDbEntity
  8
0
100
AcDbEllipse
 10
-0.0000000000000054
 20
13.06394529484362
 30
0.0
 11
-1.99999999999999
 21
0.0000000000000004
 31
0.0
210
0.0
220
0.0
230
1.0
 40
0.5773502691896259
 41
0.0000000000000033
 42
3.141592653589796
  0
LINE
  5
DA4
330
CCD
100
AcDbEntity
  8
0
100
AcDbLine
 10
-1.664243233483442
 20
12.28473272235259
 30
0.0
 11
-1.901992266838215
 21
12.70690868752926
 31
0.0
  0
LINE
  5
DA5
330
CCD
100
AcDbEntity
  8
0
100
AcDbLine
 10
1.664243233483424
 20
12.28473272235259
 30
0.0
 11
1.901992266838199
 21
12.70690868752927
 31
0.0
  0
LINE
  5
DA6
330
CCD
100
AcDbEntity
  8
0
100
AcDbLine
 10
0.7902219847043539
 20
20.52772725425395
 30
0.0
 11
0.7902219847043544
 21
20.60937691234672
 31
0.0
  0
LINE
  5
DA7
330
CCD
100
AcDbEntity
  8
0
100
AcDbLine
 10
-0.9899494936611754
 20
21.63715939458475
 30
0.0
 11
0.7902219847043544
 21
20.60937691234672
 31
0.0
  0
LINE
  5
DA8
330
CCD
100
AcDbEntity
  8
0
100
AcDbLine
 10
-0.9899494936611754
 20
21.63715939458475
 30
0.0
 11
-0.9899494936611754
 21
21.55550973649198
 31
0.0
  0
LINE
  5
DA9
330
CCD
100
AcDbEntity
  8
0
100
AcDbLine
 10
0.7902219847043539
 20
20.52772725425395
 30
0.0
 11
-0.9899494936611754
 21
21.55550973649198
 31
0.0
  0
LINE
  5
DAA
330
CCD
100
AcDbEntity
  8
0
100
AcDbLine
 10
0.1767766952966282
 20
20.51447659580913
 30
0.0
 11
0.1767766952966281
 21
20.43282693771635
 31
0.0
  0
LINE
  5
DAB
330
CCD
100
AcDbEntity
  8
0
100
AcDbLine
 10
0.1767766952966282
 20
20.51447659580913
 30
0.0
 11
-1.378858223313776
 21
21.41262283482962
 31
0.0
  0
LINE
  5
DAC
330
CCD
100
AcDbEntity
  8
0
100
AcDbLine
 10
1.732411613907033
 20
19.61633035678862
 30
0.0
 11
0.3809008405285597
 21
20.39662546561137
 31
0.0
  0
LINE
  5
DAD
330
CCD
100
AcDbEntity
  8
0
100
AcDbLine
 10
2.121320343559634
 20
19.84086691654375
 30
0.0
 11
1.732411613907033
 21
19.61633035678862
 31
0.0
  0
LINE
  5
DAE
330
CCD
100
AcDbEntity
  8
0
100
AcDbLine
 10
0.9943461299362855
 20
20.49152578214896
 30
0.0
 11
0.9943461299362859
 21
20.40987612405618
 31
0.0
  0
LINE
  5
DAF
330
CCD
100
AcDbEntity
  8
0
100
AcDbLine
 10
2.050609665440979
 20
19.80004208749736
 30
0.0
 11
0.994346129936286
 21
20.40987612405618
 31
0.0
  0
LINE
  5
DB0
330
CCD
100
AcDbEntity
  8
0
100
AcDbLine
 10
0.9943461299362855
 20
20.49152578214896
 30
0.0
 11
2.121320343559634
 21
19.84086691654375
 31
0.0
  0
LINE
  5
DB1
330
CCD
100
AcDbEntity
  8
0
100
AcDbLine
 10
-0.9899494936611754
 20
21.55550973649198
 30
0.0
 11
-1.308147545195121
 21
21.37179800578324
 31
0.0
  0
LINE
  5
DB2
330
CCD
100
AcDbEntity
  8
0
100
AcDbLine
 10
-1.378858223313776
 20
21.41262283482962
 30
0.0
 11
-0.9899494936611754
 21
21.63715939458475
 31
0.0
  0
LINE
  5
DB3
330
CCD
100
AcDbEntity
  8
0
100
AcDbLine
 10
-0.1767766952966455
 20
20.31035245057719
 30
0.0
 11
-0.1767766952966455
 21
20.22870279248442
 31
0.0
  0
LINE
  5
DB4
330
CCD
100
AcDbEntity
  8
0
100
AcDbLine
 10
0.3809008405285597
 20
20.39662546561137
 30
0.0
 11
-0.1767766952966455
 21
20.31035245057719
 31
0.0
  0
LINE
  5
DB5
330
CCD
100
AcDbEntity
  8
0
100
AcDbLine
 10
2.157389198473757
 20
20.67144917100996
 30
0.0
 11
0.9943461299362855
 21
20.49152578214896
 31
0.0
  0
LINE
  5
DB6
330
CCD
100
AcDbEntity
  8
0
100
AcDbLine
 10
-0.3809008405285771
 20
20.42820358077495
 30
0.0
 11
0.1767766952966282
 21
20.51447659580913
 31
0.0
  0
LINE
  5
DB7
330
CCD
100
AcDbEntity
  8
0
100
AcDbLine
 10
-0.3809008405285771
 20
20.34655392268218
 30
0.0
 11
-0.3809008405285771
 21
20.42820358077495
 31
0.0
  0
LINE
  5
DB8
330
CCD
100
AcDbEntity
  8
0
100
AcDbLine
 10
0.1767766952966281
 20
20.43282693771635
 30
0.0
 11
-0.3809008405285771
 21
20.34655392268218
 31
0.0
  0
LINE
  5
DB9
330
CCD
100
AcDbEntity
  8
0
100
AcDbLine
 10
-1.73241161390705
 20
21.20849868959769
 30
0.0
 11
-0.3809008405285771
 21
20.42820358077495
 31
0.0
  0
LINE
  5
DBA
330
CCD
100
AcDbEntity
  8
0
100
AcDbLine
 10
-1.73241161390705
 20
21.20849868959769
 30
0.0
 11
-1.73241161390705
 21
21.12684903150492
 31
0.0
  0
LINE
  5
DBB
330
CCD
100
AcDbEntity
  8
0
100
AcDbLine
 10
-0.3809008405285771
 20
20.34655392268218
 30
0.0
 11
-1.73241161390705
 21
21.12684903150492
 31
0.0
  0
LINE
  5
DBC
330
CCD
100
AcDbEntity
  8
0
100
AcDbLine
 10
1.308147545195104
 20
19.37138138251031
 30
0.0
 11
-0.1767766952966454
 21
20.22870279248442
 31
0.0
  0
LINE
  5
DBD
330
CCD
100
AcDbEntity
  8
0
100
AcDbLine
 10
-0.1767766952966455
 20
20.31035245057719
 30
0.0
 11
1.378858223313759
 21
19.41220621155669
 31
0.0
  0
LINE
  5
DBE
330
CCD
100
AcDbEntity
  8
0
100
AcDbLine
 10
-0.9943461299363033
 20
20.33330326423736
 30
0.0
 11
-0.9943461299363033
 21
20.25165360614459
 31
0.0
  0
LINE
  5
DBF
330
CCD
100
AcDbEntity
  8
0
100
AcDbLine
 10
-0.9943461299363033
 20
20.33330326423736
 30
0.0
 11
-2.121320343559652
 21
20.98396212984257
 31
0.0
  0
LINE
  5
DC0
330
CCD
100
AcDbEntity
  8
0
100
AcDbLine
 10
1.378858223313759
 20
19.41220621155669
 30
0.0
 11
0.9899494936611583
 21
19.18766965180157
 31
0.0
  0
LINE
  5
DC1
330
CCD
100
AcDbEntity
  8
0
100
AcDbLine
 10
-1.73241161390705
 20
21.12684903150492
 30
0.0
 11
-2.050609665440997
 21
20.94313730079618
 31
0.0
  0
LINE
  5
DC2
330
CCD
100
AcDbEntity
  8
0
100
AcDbLine
 10
-2.121320343559652
 20
20.98396212984257
 30
0.0
 11
-1.73241161390705
 21
21.20849868959769
 31
0.0
  0
LINE
  5
DC3
330
CCD
100
AcDbEntity
  8
0
100
AcDbLine
 10
0.9899494936611583
 20
19.18766965180157
 30
0.0
 11
-0.7902219847043714
 21
20.2154521340396
 31
0.0
  0
LINE
  5
DC4
330
CCD
100
AcDbEntity
  8
0
100
AcDbLine
 10
-0.7902219847043717
 20
20.2154521340396
 30
0.0
 11
-2.092684437198144
 21
20.01396049142006
 31
0.0
  0
LINE
  5
DC5
330
CCD
100
AcDbEntity
  8
0
100
AcDbLine
 10
-2.157389198473774
 20
20.15337987537636
 30
0.0
 11
-0.9943461299363033
 21
20.33330326423736
 31
0.0
  0
LINE
  5
DC6
330
CCD
100
AcDbEntity
  8
0
100
AcDbLine
 10
-0.9943461299363033
 20
20.25165360614459
 30
0.0
 11
-2.122033859414447
 21
20.07719970727064
 31
0.0
  0
LINE
  5
DC7
330
CCD
100
AcDbEntity
  8
0
100
AcDbLine
 10
-2.092684437198144
 20
20.01396049142006
 30
0.0
 11
-2.157389198473774
 21
20.15337987537636
 31
0.0
  0
LINE
  5
DC8
330
CCD
100
AcDbEntity
  8
0
100
AcDbLine
 10
2.12203385941443
 20
20.6659796810229
 30
0.0
 11
2.092684437198127
 21
20.72921889687349
 31
0.0
  0
LINE
  5
DC9
330
CCD
100
AcDbEntity
  8
0
100
AcDbLine
 10
2.092684437198127
 20
20.81086855496626
 30
0.0
 11
2.157389198473757
 21
20.67144917100996
 31
0.0
  0
LINE
  5
DCA
330
CCD
100
AcDbEntity
  8
0
100
AcDbLine
 10
2.092684437198127
 20
20.81086855496626
 30
0.0
 11
2.092684437198127
 21
20.72921889687349
 31
0.0
  0
LINE
  5
DCB
330
CCD
100
AcDbEntity
  8
0
100
AcDbLine
 10
2.092684437198127
 20
20.72921889687349
 30
0.0
 11
0.790221984704354
 21
20.52772725425395
 31
0.0
  0
LINE
  5
DCC
330
CCD
100
AcDbEntity
  8
0
100
AcDbLine
 10
0.7902219847043544
 20
20.60937691234672
 30
0.0
 11
2.092684437198127
 21
20.81086855496626
 31
0.0
  0
ELLIPSE
  5
DCD
330
CCD
100
AcDbEntity
  8
0
100
AcDbEllipse
 10
-0.0000000000000047
 20
20.41241452319316
 30
0.0
 11
4.00000000000001
 21
0.0
 31
0.0
210
0.0
220
0.0
230
1.0
 40
0.5773502691896258
 41
0.0
 42
6.283185307179586
  0
ELLIPSE
  5
DCE
330
CCD
100
AcDbEntity
  8
0
100
AcDbEllipse
 10
-0.0000000000000049
 20
17.71797580613166
 30
0.0
 11
1.999999999999993
 21
0.0000000000001197
 31
0.0
210
0.0
220
0.0
230
1.0
 40
0.5773502691896257
 41
3.714544907501995
 42
5.710233053266673
  0
ELLIPSE
  5
DCF
330
CCD
100
AcDbEntity
  8
0
100
AcDbEllipse
 10
-0.0000000000000052
 20
19.18766965180157
 30
0.0
 11
-4.00000000000001
 21
0.0000000000000011
 31
0.0
210
0.0
220
0.0
230
1.0
 40
0.5773502691896259
 41
0.0000000000000015
 42
3.141592653589793
  0
LINE
  5
DD0
330
CCD
100
AcDbEntity
  8
0
100
AcDbLine
 10
-1.999999999999996
 20
13.06394529484362
 30
0.0
 11
-1.999999999999995
 21
17.18766965180156
 31
0.0
  0
LINE
  5
DD1
330
CCD
100
AcDbEntity
  8
0
100
AcDbLine
 10
1.999999999999984
 20
13.06394529484362
 30
0.0
 11
1.999999999999985
 21
17.18766965180156
 31
0.0
  0
LINE
  5
DD2
330
CCD
100
AcDbEntity
  8
0
100
AcDbLine
 10
-4.000000000000015
 20
19.18766965180157
 30
0.0
 11
-4.000000000000015
 21
20.41241452319316
 31
0.0
  0
LINE
  5
DD3
330
CCD
100
AcDbEntity
  8
0
100
AcDbLine
 10
4.000000000000005
 20
19.18766965180157
 30
0.0
 11
4.000000000000005
 21
20.41241452319316
 31
0.0
  0
LINE
  5
DD4
330
CCD
100
AcDbEntity
  8
0
100
AcDbLine
 10
-2.200000000000009
 20
-17.14698009413725
 30
0.0
 11
-2.200000000000009
 21
-15.98024057871777
 31
0.0
  0
LINE
  5
DD5
330
CCD
100
AcDbEntity
  8
0
100
AcDbLine
 10
2.199999999999991
 20
-17.14698009413725
 30
0.0
 11
2.199999999999991
 21
-15.98024057871777
 31
0.0
  0
ENDBLK
  5
CCF
330
CCD
100
AcDbEntity
  8
0
100
AcDbBlockEnd
  0
ENDSEC
  0
SECTION
  2
ENTITIES
  0
INSERT
  5
DD6
330
1F
100
AcDbEntity
  8
0
100
AcDbBlockReference
  2
CNA40x50-Front
 10
0.0
 20
0.0
 30
0.0
  0
INSERT
  5
DD7
330
1F
100
AcDbEntity
  8
0
100
AcDbBlockReference
  2
CNA40x50-Top
 10
0.0
 20
-67.50000000000001
 30
0.0
  0
INSERT
  5
DD8
330
1F
100
AcDbEntity
  8
0
100
AcDbBlockReference
  2
CNA40x50-ISO
 10
23.00000000000004
 20
-86.22181559995167
 30
0.0
  0
MTEXT
  5
DD9
330
1F
100
AcDbEntity
  8
0
100
AcDbMText
 10
0.0
 20
-86.50000000000003
 30
0.0
 40
2.923076923076925
 41
0.0
 71
     5
 72
     5
  1
CNA4.0x50
 73
     1
 44
1.0
1001
ACAD
1000
MTEXTBEGIN
1070
    73
1070
     1
1070
    44
1040
1.0
1070
    74
1070
     0
1000
MTEXTEND
  0
ENDSEC
  0
SECTION
  2
OBJECTS
  0
DICTIONARY
  5
C
330
0
100
AcDbDictionary
281
     1
  3
ACAD_CIP_PREVIOUS_PRODUCT_INFO
350
216
  3
ACAD_COLOR
350
6B
  3
ACAD_DETAILVIEWSTYLE
350
21B
  3
ACAD_GROUP
350
D
  3
ACAD_LAYOUT
350
1A
  3
ACAD_MATERIAL
350
6A
  3
ACAD_MLEADERSTYLE
350
12D
  3
ACAD_MLINESTYLE
350
17
  3
ACAD_PLOTSETTINGS
350
19
  3
ACAD_PLOTSTYLENAME
350
E
  3
ACAD_SCALELIST
350
10C
  3
ACAD_SECTIONVIEWSTYLE
350
219
  3
ACAD_TABLESTYLE
350
7E
  3
ACAD_VISUALSTYLE
350
EF
  3
ACDB_RECOMPOSE_DATA
350
EDC
  3
AcDbVariableDictionary
350
5E
  3
DWGPROPS
350
EDD
  0
DICTIONARY
  5
E2C
330
8
100
AcDbDictionary
280
     1
281
     1
  0
DICTIONARY
  5
1FF
330
2
100
AcDbDictionary
280
     1
281
     1
  3
ACAD_LAYERSTATES
360
200
  0
DICTIONARY
  5
13C
330
10
100
AcDbDictionary
280
     1
281
     1
  0
DICTIONARY
  5
1CE
330
1F
100
AcDbDictionary
280
     1
281
     1
  3
ACAD_LAYOUTSELFREF
360
E34
  0
DICTIONARY
  5
DDD
330
D2
100
AcDbDictionary
280
     1
281
     1
  3
ACAD_LAYOUTSELFREF
360
E3D
  0
DICTIONARY
  5
DDF
330
D6
100
AcDbDictionary
280
     1
281
     1
  3
ACAD_LAYOUTSELFREF
360
E40
  0
XRECORD
  5
216
102
{ACAD_REACTORS
330
C
102
}
330
C
100
AcDbXrecord
280
     1
300
ACD
300
2021
300

  0
DICTIONARY
  5
6B
102
{ACAD_REACTORS
330
C
102
}
330
C
100
AcDbDictionary
281
     1
  0
DICTIONARY
  5
21B
102
{ACAD_REACTORS
330
C
102
}
330
C
100
AcDbDictionary
281
     1
  3
Metric50
350
21C
  0
DICTIONARY
  5
D
102
{ACAD_REACTORS
330
C
102
}
330
C
100
AcDbDictionary
281
     1
  0
DICTIONARY
  5
1A
102
{ACAD_REACTORS
330
C
102
}
330
C
100
AcDbDictionary
281
     1
  3
Layout1
350
D3
  3
Layout2
350
D7
  3
Model
350
22
  0
DICTIONARY
  5
6A
102
{ACAD_REACTORS
330
C
102
}
330
C
100
AcDbDictionary
281
     1
  3
ByBlock
350
ED
  3
ByLayer
350
EC
  3
Global
350
EE
  0
DICTIONARY
  5
12D
102
{ACAD_REACTORS
330
C
102
}
330
C
100
AcDbDictionary
281
     1
  3
Standard
350
12E
  0
DICTIONARY
  5
17
102
{ACAD_REACTORS
330
C
102
}
330
C
100
AcDbDictionary
281
     1
  3
Standard
350
18
  0
DICTIONARY
  5
19
102
{ACAD_REACTORS
330
C
102
}
330
C
100
AcDbDictionary
281
     1
  0
ACDBDICTIONARYWDFLT
  5
E
102
{ACAD_REACTORS
330
C
102
}
330
C
100
AcDbDictionary
281
     1
  3
Normal
350
F
100
AcDbDictionaryWithDefault
340
F
  0
DICTIONARY
  5
10C
102
{ACAD_REACTORS
330
C
102
}
330
C
100
AcDbDictionary
281
     1
  3
A0
350
10D
  3
A1
350
1BE
  3
A2
350
1BF
  3
A3
350
1C0
  3
A4
350
1C1
  3
A5
350
1C2
  3
A6
350
1C3
  3
A7
350
1C4
  3
A8
350
1C5
  3
A9
350
1C6
  3
B0
350
1C7
  3
B1
350
1C8
  3
B2
350
1C9
  3
B3
350
1CA
  3
B4
350
1CB
  3
B5
350
1CC
  3
B6
350
1CD
  0
DICTIONARY
  5
219
102
{ACAD_REACTORS
330
C
102
}
330
C
100
AcDbDictionary
281
     1
  3
Metric50
350
21A
  0
DICTIONARY
  5
7E
102
{ACAD_REACTORS
330
C
102
}
330
C
100
AcDbDictionary
281
     1
  3
Standard
350
7F
  0
DICTIONARY
  5
EF
102
{ACAD_REACTORS
330
C
102
}
330
C
100
AcDbDictionary
281
     1
  3
2dWireframe
350
F5
  3
Basic
350
F4
  3
Brighten
350
FB
  3
ColorChange
350
FF
  3
Conceptual
350
F8
  3
Dim
350
FA
  3
EdgeColorOff
350
1E6
  3
Facepattern
350
FE
  3
Flat
350
F0
  3
FlatWithEdges
350
F1
  3
Gouraud
350
F2
  3
GouraudWithEdges
350
F3
  3
Hidden
350
F7
  3
JitterOff
350
1E4
  3
Linepattern
350
FD
  3
OverhangOff
350
1E5
  3
Realistic
350
F9
  3
Shaded
350
1F3
  3
Shaded with edges
350
1F2
  3
Shades of Gray
350
1EF
  3
Sketchy
350
1F0
  3
Thicken
350
FC
  3
Wireframe
350
F6
  3
X-Ray
350
1F1
  0
XRECORD
  5
EDC
102
{ACAD_REACTORS
330
C
102
}
330
C
100
AcDbXrecord
280
     1
 90
        1
330
7F
  0
DICTIONARY
  5
5E
102
{ACAD_REACTORS
330
C
102
}
330
C
100
AcDbDictionary
281
     1
  3
CANNOSCALE
350
146
  3
CENTEREXE
350
259
  3
CENTERLTYPEFILE
350
25A
  3
CMLEADERSTYLE
350
145
  3
CTABLESTYLE
350
84
  3
CVIEWDETAILSTYLE
350
227
  3
CVIEWSECTIONSTYLE
350
228
  3
DIMASSOC
350
5F
  3
HIDETEXT
350
63
  3
INDEXCTL
350
E89
  3
LAYEREVAL
350
1AE
  3
LAYERNOTIFY
350
1AF
  3
LIGHTINGUNITS
350
E87
  3
MSLTSCALE
350
E86
  3
PSOLHEIGHT
350
ED9
  3
PSOLWIDTH
350
ED8
  3
SORTENTS
350
E88
  3
XCLIPFRAME
350
EDA
  0
XRECORD
  5
EDD
102
{ACAD_REACTORS
330
C
102
}
330
C
100
AcDbXrecord
280
     1
  1
DWGPROPS COOKIE
  2

  3

  4

  6

  7

  8
tronnguyen
  9

300
=
301
=
302
=
303
=
304
=
305
=
306
=
307
=
308
=
309
=
 40
0.0011226851851852
 41
2460131.529421297
 42
2460131.555648148
  1

 90
        0
  0
DICTIONARY
  5
200
102
{ACAD_REACTORS
330
1FF
102
}
330
1FF
100
AcDbDictionary
281
     1
  0
XRECORD
  5
E34
102
{ACAD_REACTORS
330
1CE
102
}
330
1CE
100
AcDbXrecord
280
     1
340
1F
  0
XRECORD
  5
E3D
102
{ACAD_REACTORS
330
DDD
102
}
330
DDD
100
AcDbXrecord
280
     1
340
D2
  0
XRECORD
  5
E40
102
{ACAD_REACTORS
330
DDF
102
}
330
DDF
100
AcDbXrecord
280
     1
340
D6
  0
ACDBDETAILVIEWSTYLE
  5
21C
102
{ACAD_XDICTIONARY
360
F1C
102
}
102
{ACAD_REACTORS
330
21B
102
}
330
21B
100
AcDbModelDocViewStyle
 70
     0
  3
Metric50
290
     0
100
AcDbDetailViewStyle
 70
     0
 71
     0
 90
        3
 71
     1
340
11
 40
5.0
340
0
 40
5.0
300

 40
0.0
280
     1
 71
     2
340
16
 90
       25
 71
     3
340
11
 40
5.0
 90
        0
 40
15.0
 90
        1
300
%<\AcVar ViewDetailId>% (%<\AcVar ViewScale \f "%sn">%)
 71
     4
340
16
 90
       25
340
16
 90
       25
280
     0
  0
LAYOUT
  5
D3
102
{ACAD_XDICTIONARY
360
EE1
102
}
102
{ACAD_REACTORS
330
1A
102
}
330
1A
100
AcDbPlotSettings
  1

  2
C:\Documents and Settings\basas\Application Data\Autodesk\AutoCAD 2005\R16.1\enu\plotters\Default Windows System Printer.pc3
  4

  6

 40
0.0
 41
0.0
 42
0.0
 43
0.0
 44
0.0
 45
0.0
 46
0.0
 47
0.0
 48
0.0
 49
0.0
140
0.0
141
0.0
142
1.0
143
1.0
 70
   688
 72
     0
 73
     0
 74
     5
  7

 75
    16
147
1.0
148
0.0
149
0.0
100
AcDbLayout
  1
Layout1
 70
     1
 71
     1
 10
0.0
 20
0.0
 11
12.0
 21
9.0
 12
0.0
 22
0.0
 32
0.0
 14
0.0
 24
0.0
 34
0.0
 15
0.0
 25
0.0
 35
0.0
146
0.0
 13
0.0
 23
0.0
 33
0.0
 16
1.0
 26
0.0
 36
0.0
 17
0.0
 27
1.0
 37
0.0
 76
     0
330
D2
  0
LAYOUT
  5
D7
102
{ACAD_XDICTIONARY
360
EE3
102
}
102
{ACAD_REACTORS
330
1A
102
}
330
1A
100
AcDbPlotSettings
  1

  2
C:\Documents and Settings\basas\Application Data\Autodesk\AutoCAD 2005\R16.1\enu\plotters\Default Windows System Printer.pc3
  4

  6

 40
0.0
 41
0.0
 42
0.0
 43
0.0
 44
0.0
 45
0.0
 46
0.0
 47
0.0
 48
0.0
 49
0.0
140
0.0
141
0.0
142
1.0
143
1.0
 70
   688
 72
     0
 73
     0
 74
     5
  7

 75
    16
147
1.0
148
0.0
149
0.0
100
AcDbLayout
  1
Layout2
 70
     1
 71
     2
 10
0.0
 20
0.0
 11
12.0
 21
9.0
 12
0.0
 22
0.0
 32
0.0
 14
0.0
 24
0.0
 34
0.0
 15
0.0
 25
0.0
 35
0.0
146
0.0
 13
0.0
 23
0.0
 33
0.0
 16
1.0
 26
0.0
 36
0.0
 17
0.0
 27
1.0
 37
0.0
 76
     0
330
D6
  0
LAYOUT
  5
22
102
{ACAD_XDICTIONARY
360
EDE
102
}
102
{ACAD_REACTORS
330
1A
102
}
330
1A
100
AcDbPlotSettings
  1

  2
none_device
  4
ISO_A4_(210.00_x_297.00_MM)
  6

 40
7.5
 41
20.0
 42
7.5
 43
20.0
 44
210.0
 45
297.0
 46
11.54999923706054
 47
-13.65000009536743
 48
0.0
 49
0.0
140
0.0
141
0.0
142
1.0
143
8.704084754739808
 70
 11952
 72
     1
 73
     0
 74
     0
  7

 75
     0
147
0.1148885871608098
148
0.0
149
0.0
100
AcDbLayout
  1
Model
 70
     1
 71
     0
 10
0.0
 20
0.0
 11
12.0
 21
9.0
 12
0.0
 22
0.0
 32
0.0
 14
0.0
 24
0.0
 34
0.0
 15
0.0
 25
0.0
 35
0.0
146
0.0
 13
0.0
 23
0.0
 33
0.0
 16
1.0
 26
0.0
 36
0.0
 17
0.0
 27
1.0
 37
0.0
 76
     0
330
1F
331
EA
1001
ACAD_PSEXT
1000
None
1000
None
1000
Not applicable
1000
The layout will not be plotted unless a new plotter configuration name is selected.
1070
     0
  0
MATERIAL
  5
ED
102
{ACAD_XDICTIONARY
360
1F9
102
}
102
{ACAD_REACTORS
330
6A
102
}
330
6A
100
AcDbMaterial
  1
ByBlock
  0
MATERIAL
  5
EC
102
{ACAD_XDICTIONARY
360
1F7
102
}
102
{ACAD_REACTORS
330
6A
102
}
330
6A
100
AcDbMaterial
  1
ByLayer
  0
MATERIAL
  5
EE
102
{ACAD_XDICTIONARY
360
173
102
}
102
{ACAD_REACTORS
330
6A
102
}
330
6A
100
AcDbMaterial
  1
Global
 43
0.0007999999797903
 43
0.0
 43
0.0
 43
0.0
 43
0.0
 43
0.0007999999797903
 43
0.0
 43
0.0
 43
0.0
 43
0.0
 43
1.0
 43
0.0
 43
0.0
 43
0.0
 43
0.0
 43
1.0
 49
0.0007999999797903
 49
0.0
 49
0.0
 49
0.0
 49
0.0
 49
0.0007999999797903
 49
0.0
 49
0.0
 49
0.0
 49
0.0
 49
1.0
 49
0.0
 49
0.0
 49
0.0
 49
0.0
 49
1.0
142
0.0007999999797903
142
0.0
142
0.0
142
0.0
142
0.0
142
0.0007999999797903
142
0.0
142
0.0
142
0.0
142
0.0
142
1.0
142
0.0
142
0.0
142
0.0
142
0.0
142
1.0
144
0.0007999999797903
144
0.0
144
0.0
144
0.0
144
0.0
144
0.0007999999797903
144
0.0
144
0.0
144
0.0
144
0.0
144
1.0
144
0.0
144
0.0
144
0.0
144
0.0
144
1.0
1001
ACAD
1070
    -1
1070
     3
1070
     0
1000

1071
        0
1070
     0
  0
MLEADERSTYLE
  5
12E
102
{ACAD_XDICTIONARY
360
F08
102
}
102
{ACAD_REACTORS
330
12D
102
}
330
12D
100
AcDbMLeaderStyle
170
     2
171
     1
172
     0
 90
        2
 40
0.0
 41
0.0
173
     1
 91
-1056964608
340
14
 92
       -2
290
     1
 42
2.0
291
     1
 43
8.0
  3
Standard
 44
4.0
300

342
11
174
     1
178
     1
175
     1
176
     0
 93
-1056964608
 45
4.0
292
     0
297
     0
 46
4.0
 94
-1056964608
 47
1.0
 49
1.0
140
1.0
293
     1
141
0.0
294
     1
177
     0
142
1.0
295
     0
296
     0
143
3.75
1001
ACAD_MLEADERVER
1070
     2
  0
MLINESTYLE
  5
18
102
{ACAD_REACTORS
330
17
102
}
330
17
100
AcDbMlineStyle
  2
STANDARD
 70
     0
  3

 62
   256
 51
90.0
 52
90.0
 71
     2
 49
0.5
 62
   256
  6
BYLAYER
 49
-0.5
 62
   256
  6
BYLAYER
  0
ACDBPLACEHOLDER
  5
F
102
{ACAD_REACTORS
330
E
102
}
330
E
  0
SCALE
  5
10D
102
{ACAD_REACTORS
330
10C
102
}
330
10C
100
AcDbScale
 70
     0
300
1:1
140
1.0
141
1.0
290
     1
  0
SCALE
  5
1BE
102
{ACAD_REACTORS
330
10C
102
}
330
10C
100
AcDbScale
 70
     0
300
1:2
140
1.0
141
2.0
290
     0
  0
SCALE
  5
1BF
102
{ACAD_REACTORS
330
10C
102
}
330
10C
100
AcDbScale
 70
     0
300
1:4
140
1.0
141
4.0
290
     0
  0
SCALE
  5
1C0
102
{ACAD_REACTORS
330
10C
102
}
330
10C
100
AcDbScale
 70
     0
300
1:5
140
1.0
141
5.0
290
     0
  0
SCALE
  5
1C1
102
{ACAD_REACTORS
330
10C
102
}
330
10C
100
AcDbScale
 70
     0
300
1:8
140
1.0
141
8.0
290
     0
  0
SCALE
  5
1C2
102
{ACAD_REACTORS
330
10C
102
}
330
10C
100
AcDbScale
 70
     0
300
1:10
140
1.0
141
10.0
290
     0
  0
SCALE
  5
1C3
102
{ACAD_REACTORS
330
10C
102
}
330
10C
100
AcDbScale
 70
     0
300
1:16
140
1.0
141
16.0
290
     0
  0
SCALE
  5
1C4
102
{ACAD_REACTORS
330
10C
102
}
330
10C
100
AcDbScale
 70
     0
300
1:20
140
1.0
141
20.0
290
     0
  0
SCALE
  5
1C5
102
{ACAD_REACTORS
330
10C
102
}
330
10C
100
AcDbScale
 70
     0
300
1:30
140
1.0
141
30.0
290
     0
  0
SCALE
  5
1C6
102
{ACAD_REACTORS
330
10C
102
}
330
10C
100
AcDbScale
 70
     0
300
1:40
140
1.0
141
40.0
290
     0
  0
SCALE
  5
1C7
102
{ACAD_REACTORS
330
10C
102
}
330
10C
100
AcDbScale
 70
     0
300
1:50
140
1.0
141
50.0
290
     0
  0
SCALE
  5
1C8
102
{ACAD_REACTORS
330
10C
102
}
330
10C
100
AcDbScale
 70
     0
300
1:100
140
1.0
141
100.0
290
     0
  0
SCALE
  5
1C9
102
{ACAD_REACTORS
330
10C
102
}
330
10C
100
AcDbScale
 70
     0
300
2:1
140
2.0
141
1.0
290
     0
  0
SCALE
  5
1CA
102
{ACAD_REACTORS
330
10C
102
}
330
10C
100
AcDbScale
 70
     0
300
4:1
140
4.0
141
1.0
290
     0
  0
SCALE
  5
1CB
102
{ACAD_REACTORS
330
10C
102
}
330
10C
100
AcDbScale
 70
     0
300
8:1
140
8.0
141
1.0
290
     0
  0
SCALE
  5
1CC
102
{ACAD_REACTORS
330
10C
102
}
330
10C
100
AcDbScale
 70
     0
300
10:1
140
10.0
141
1.0
290
     0
  0
SCALE
  5
1CD
102
{ACAD_REACTORS
330
10C
102
}
330
10C
100
AcDbScale
 70
     0
300
100:1
140
100.0
141
1.0
290
     0
  0
ACDBSECTIONVIEWSTYLE
  5
21A
102
{ACAD_XDICTIONARY
360
F1A
102
}
102
{ACAD_REACTORS
330
219
102
}
330
219
100
AcDbModelDocViewStyle
 70
     0
  3
Metric50
290
     0
100
AcDbSectionViewStyle
 70
     0
 71
     0
 90
      102
 71
     1
340
11
 40
5.0
340
0
340
0
 40
5.0
300
I, O, Q, S, X, Z
 40
10.0
 90
        0
 40
2.5
 90
        0
 71
     2
340
16
 90
       25
340
16
 90
       50
 40
5.0
 40
2.5
 40
5.0
 71
     3
340
11
 40
5.0
 90
        0
 40
15.0
 90
        1
300
%<\AcVar ViewSectionStartId>%-%<\AcVar ViewSectionEndId>% (%<\AcVar ViewScale \f "%sn">%)
 71
     4
300
ANSI31
 40
1.0
 90
        0
290
     0
290
     0
 90
        6
 40
0.0
 40
1.570796326794896
 40
0.2617993877991494
 40
1.308996938995747
 40
-0.2617993877991494
 40
1.832595714594046
  0
TABLESTYLE
  5
7F
102
{ACAD_XDICTIONARY
360
162
102
}
102
{ACAD_REACTORS
330
7E
102
}
330
7E
100
AcDbTableStyle
  3
Standard
 70
     0
 71
     0
 40
1.5
 41
1.5
280
     0
281
     0
  7
Standard
140
4.5
170
     2
 62
     0
 63
     7
283
     0
274
    -2
284
     1
 64
     0
275
    -2
285
     1
 65
     0
276
    -2
286
     1
 66
     0
277
    -2
287
     1
 67
     0
278
    -2
288
     1
 68
     0
279
    -2
289
     1
 69
     0
  7
Standard
140
6.0
170
     5
 62
     0
 63
     7
283
     0
274
    -2
284
     1
 64
     0
275
    -2
285
     1
 65
     0
276
    -2
286
     1
 66
     0
277
    -2
287
     1
 67
     0
278
    -2
288
     1
 68
     0
279
    -2
289
     1
 69
     0
  7
Standard
140
4.5
170
     5
 62
     0
 63
     7
283
     0
274
    -2
284
     1
 64
     0
275
    -2
285
     1
 65
     0
276
    -2
286
     1
 66
     0
277
    -2
287
     1
 67
     0
278
    -2
288
     1
 68
     0
279
    -2
289
     1
 69
     0
  0
VISUALSTYLE
  5
F5
102
{ACAD_XDICTIONARY
360
EF2
102
}
102
{ACAD_REACTORS
330
EF
102
}
330
EF
100
AcDbVisualStyle
  2
2dWireframe
 70
     4
 71
     0
 72
     2
 73
     1
 90
        0
 40
-0.6
 41
-30.0
 62
     5
 63
     7
 74
     1
 91
        4
 64
     7
 65
   257
 75
     1
175
     1
 42
1.0
 92
        0
 66
   257
 43
1.0
 76
     1
 77
     6
 78
     2
 67
     7
 79
     5
170
     0
171
     0
290
     0
174
     0
 93
        1
 44
0.0
173
     0
291
     0
 45
0.0
1001
ACAD
1000
AcDbSavedByObjectVersion
1070
     0
  0
VISUALSTYLE
  5
F4
102
{ACAD_XDICTIONARY
360
EF0
102
}
102
{ACAD_REACTORS
330
EF
102
}
330
EF
100
AcDbVisualStyle
  2
Basic
 70
     7
 71
     1
 72
     0
 73
     1
 90
        0
 40
-0.6
 41
-30.0
 62
     5
 63
     7
 74
     0
 91
        4
 64
     7
 65
   257
 75
     1
175
     1
 42
1.0
 92
        8
 66
     7
 43
1.0
 76
     1
 77
     6
 78
     2
 67
     7
 79
     5
170
     0
171
     0
290
     0
174
     0
 93
        1
 44
0.0
173
     0
291
     1
 45
0.0
1001
ACAD
1000
AcDbSavedByObjectVersion
1070
     0
  0
VISUALSTYLE
  5
FB
102
{ACAD_XDICTIONARY
360
EFE
102
}
102
{ACAD_REACTORS
330
EF
102
}
330
EF
100
AcDbVisualStyle
  2
Brighten
 70
    12
 71
     2
 72
     2
 73
     1
 90
        0
 40
-0.6
 41
-30.0
 62
     5
 63
     7
 74
     1
 91
        4
 64
     7
 65
   257
 75
     1
175
     1
 42
1.0
 92
        8
 66
     7
 43
1.0
 76
     1
 77
     6
 78
     2
 67
     7
 79
     5
170
     0
171
     0
290
     0
174
     0
 93
        1
 44
50.0
173
     0
291
     1
 45
0.0
1001
ACAD
1000
AcDbSavedByObjectVersion
1070
     0
  0
VISUALSTYLE
  5
FF
102
{ACAD_XDICTIONARY
360
F06
102
}
102
{ACAD_REACTORS
330
EF
102
}
330
EF
100
AcDbVisualStyle
  2
ColorChange
 70
    16
 71
     2
 72
     2
 73
     3
 90
        0
 40
-0.6
 41
-30.0
 62
     5
 63
     8
 74
     1
 91
        4
 64
     7
 65
   257
 75
     1
175
     1
 42
1.0
 92
        8
 66
     8
 43
1.0
 76
     1
 77
     6
 78
     2
 67
     7
 79
     5
170
     0
171
     0
290
     0
174
     0
 93
        1
 44
0.0
173
     0
291
     1
 45
0.0
1001
ACAD
1000
AcDbSavedByObjectVersion
1070
     0
  0
VISUALSTYLE
  5
F8
102
{ACAD_XDICTIONARY
360
EF8
102
}
102
{ACAD_REACTORS
330
EF
102
}
330
EF
100
AcDbVisualStyle
  2
Conceptual
 70
     9
 71
     3
 72
     2
 73
     1
 90
        0
 40
-0.6
 41
-30.0
 62
     5
 63
     7
 74
     2
 91
        2
 64
     7
 65
   257
 75
     1
175
     1
 42
40.0
 92
        8
 66
     7
 43
1.0
 76
     1
 77
     6
 78
     2
 67
     7
 79
     3
170
     0
171
     0
290
     0
174
     0
 93
        1
 44
0.0
173
     0
291
     0
 45
0.0
1001
ACAD
1000
AcDbSavedByObjectVersion
1070
     0
  0
VISUALSTYLE
  5
FA
102
{ACAD_XDICTIONARY
360
EFC
102
}
102
{ACAD_REACTORS
330
EF
102
}
330
EF
100
AcDbVisualStyle
  2
Dim
 70
    11
 71
     2
 72
     2
 73
     1
 90
        0
 40
-0.6
 41
-30.0
 62
     5
 63
     7
 74
     1
 91
        4
 64
     7
 65
   257
 75
     1
175
     1
 42
1.0
 92
        8
 66
     7
 43
1.0
 76
     1
 77
     6
 78
     2
 67
     7
 79
     5
170
     0
171
     0
290
     0
174
     0
 93
        1
 44
-50.0
173
     0
291
     1
 45
0.0
1001
ACAD
1000
AcDbSavedByObjectVersion
1070
     0
  0
VISUALSTYLE
  5
1E6
102
{ACAD_XDICTIONARY
360
F0E
102
}
102
{ACAD_REACTORS
330
EF
102
}
330
EF
100
AcDbVisualStyle
  2
EdgeColorOff
 70
    22
 71
     2
 72
     2
 73
     0
 90
        0
 40
-0.6
 41
-30.0
 62
     5
 63
     7
 74
     1
 91
        4
 64
     7
 65
   257
 75
     1
175
     1
 42
1.0
 92
        8
 66
     7
 43
1.0
 76
     1
 77
     6
 78
     2
 67
     7
 79
     5
170
     0
171
     0
290
     0
174
     0
 93
        1
 44
0.0
173
     0
291
     1
 45
0.0
1001
ACAD
1000
AcDbSavedByObjectVersion
1070
     0
  0
VISUALSTYLE
  5
FE
102
{ACAD_XDICTIONARY
360
F04
102
}
102
{ACAD_REACTORS
330
EF
102
}
330
EF
100
AcDbVisualStyle
  2
Facepattern
 70
    15
 71
     2
 72
     2
 73
     1
 90
        0
 40
-0.6
 41
-30.0
 62
     5
 63
     7
 74
     1
 91
        4
 64
     7
 65
   257
 75
     1
175
     1
 42
1.0
 92
        8
 66
     7
 43
1.0
 76
     1
 77
     6
 78
     2
 67
     7
 79
     5
170
     0
171
     0
290
     0
174
     0
 93
        1
 44
0.0
173
     0
291
     1
 45
0.0
1001
ACAD
1000
AcDbSavedByObjectVersion
1070
     0
  0
VISUALSTYLE
  5
F0
102
{ACAD_XDICTIONARY
360
EE8
102
}
102
{ACAD_REACTORS
330
EF
102
}
330
EF
100
AcDbVisualStyle
  2
Flat
 70
     0
 71
     2
 72
     1
 73
     1
 90
        2
 40
-0.6
 41
30.0
 62
     5
 63
     7
 74
     0
 91
        0
 64
     7
 65
   257
 75
     1
175
     1
 42
1.0
 92
        8
 66
     7
 43
1.0
 76
     1
 77
     6
 78
     2
 67
     7
 79
     5
170
     0
171
     0
290
     0
174
     0
 93
       13
 44
0.0
173
     0
291
     1
 45
0.0
1001
ACAD
1000
AcDbSavedByObjectVersion
1070
     0
  0
VISUALSTYLE
  5
F1
102
{ACAD_XDICTIONARY
360
EEA
102
}
102
{ACAD_REACTORS
330
EF
102
}
330
EF
100
AcDbVisualStyle
  2
FlatWithEdges
 70
     1
 71
     2
 72
     1
 73
     1
 90
        2
 40
-0.6
 41
30.0
 62
     5
 63
     7
 74
     1
 91
        0
 64
     7
 65
   257
 75
     1
175
     1
 42
1.0
 92
        0
 66
   257
 43
1.0
 76
     1
 77
     6
 78
     2
 67
     7
 79
     5
170
     0
171
     0
290
     0
174
     0
 93
       13
 44
0.0
173
     0
291
     1
 45
0.0
1001
ACAD
1000
AcDbSavedByObjectVersion
1070
     0
  0
VISUALSTYLE
  5
F2
102
{ACAD_XDICTIONARY
360
EEC
102
}
102
{ACAD_REACTORS
330
EF
102
}
330
EF
100
AcDbVisualStyle
  2
Gouraud
 70
     2
 71
     2
 72
     2
 73
     1
 90
        2
 40
-0.6
 41
30.0
 62
     5
 63
     7
 74
     0
 91
        0
 64
     7
 65
   257
 75
     1
175
     1
 42
1.0
 92
        0
 66
     7
 43
1.0
 76
     1
 77
     6
 78
     2
 67
     7
 79
     5
170
     0
171
     0
290
     0
174
     0
 93
       13
 44
0.0
173
     0
291
     1
 45
0.0
1001
ACAD
1000
AcDbSavedByObjectVersion
1070
     0
  0
VISUALSTYLE
  5
F3
102
{ACAD_XDICTIONARY
360
EEE
102
}
102
{ACAD_REACTORS
330
EF
102
}
330
EF
100
AcDbVisualStyle
  2
GouraudWithEdges
 70
     3
 71
     2
 72
     2
 73
     1
 90
        2
 40
-0.6
 41
30.0
 62
     5
 63
     7
 74
     1
 91
        0
 64
     7
 65
   257
 75
     1
175
     1
 42
1.0
 92
        0
 66
   257
 43
1.0
 76
     1
 77
     6
 78
     2
 67
     7
 79
     5
170
     0
171
     0
290
     0
174
     0
 93
       13
 44
0.0
173
     0
291
     1
 45
0.0
1001
ACAD
1000
AcDbSavedByObjectVersion
1070
     0
  0
VISUALSTYLE
  5
F7
102
{ACAD_XDICTIONARY
360
EF6
102
}
102
{ACAD_REACTORS
330
EF
102
}
330
EF
100
AcDbVisualStyle
  2
Hidden
 70
     6
 71
     1
 72
     2
 73
     2
 90
        0
 40
-0.6
 41
-30.0
 62
     5
 63
     7
 74
     2
 91
        2
 64
     7
 65
   257
 75
     2
175
     1
 42
40.0
 92
        0
 66
   257
 43
1.0
 76
     1
 77
     6
 78
     2
 67
     7
 79
     3
170
     0
171
     0
290
     0
174
     0
 93
        1
 44
0.0
173
     0
291
     0
 45
0.0
1001
ACAD
1000
AcDbSavedByObjectVersion
1070
     0
  0
VISUALSTYLE
  5
1E4
102
{ACAD_XDICTIONARY
360
F0A
102
}
102
{ACAD_REACTORS
330
EF
102
}
330
EF
100
AcDbVisualStyle
  2
JitterOff
 70
    20
 71
     2
 72
     2
 73
     0
 90
        0
 40
-0.6
 41
-30.0
 62
     5
 63
     7
 74
     1
 91
        4
 64
     7
 65
   257
 75
     1
175
     1
 42
1.0
 92
       10
 66
     7
 43
1.0
 76
     1
 77
     6
 78
     2
 67
     7
 79
     5
170
     0
171
     0
290
     0
174
     0
 93
        1
 44
0.0
173
     0
291
     1
 45
0.0
1001
ACAD
1000
AcDbSavedByObjectVersion
1070
     0
  0
VISUALSTYLE
  5
FD
102
{ACAD_XDICTIONARY
360
F02
102
}
102
{ACAD_REACTORS
330
EF
102
}
330
EF
100
AcDbVisualStyle
  2
Linepattern
 70
    14
 71
     2
 72
     2
 73
     1
 90
        0
 40
-0.6
 41
-30.0
 62
     5
 63
     7
 74
     1
 91
        4
 64
     7
 65
   257
 75
     7
175
     7
 42
1.0
 92
        8
 66
     7
 43
1.0
 76
     1
 77
     6
 78
     2
 67
     7
 79
     5
170
     0
171
     0
290
     0
174
     0
 93
        1
 44
0.0
173
     0
291
     1
 45
0.0
1001
ACAD
1000
AcDbSavedByObjectVersion
1070
     0
  0
VISUALSTYLE
  5
1E5
102
{ACAD_XDICTIONARY
360
F0C
102
}
102
{ACAD_REACTORS
330
EF
102
}
330
EF
100
AcDbVisualStyle
  2
OverhangOff
 70
    21
 71
     2
 72
     2
 73
     0
 90
        0
 40
-0.6
 41
-30.0
 62
     5
 63
     7
 74
     1
 91
        4
 64
     7
 65
   257
 75
     1
175
     1
 42
1.0
 92
        9
 66
     7
 43
1.0
 76
     1
 77
     6
 78
     2
 67
     7
 79
     5
170
     0
171
     0
290
     0
174
     0
 93
        1
 44
0.0
173
     0
291
     1
 45
0.0
1001
ACAD
1000
AcDbSavedByObjectVersion
1070
     0
  0
VISUALSTYLE
  5
F9
102
{ACAD_XDICTIONARY
360
EFA
102
}
102
{ACAD_REACTORS
330
EF
102
}
330
EF
100
AcDbVisualStyle
  2
Realistic
 70
     8
 71
     2
 72
     2
 73
     0
 90
        2
 40
-0.6
 41
30.0
 62
     5
 63
     7
 74
     0
 91
        0
 64
     7
 65
   257
 75
     1
175
     1
 42
1.0
 92
        8
 66
   257
 43
1.0
 76
     1
 77
     6
 78
     2
 67
     7
 79
     3
170
     0
171
     0
290
     0
174
     0
 93
       13
 44
0.0
173
     0
291
     0
 45
0.0
1001
ACAD
1000
AcDbSavedByObjectVersion
1070
     0
  0
VISUALSTYLE
  5
1F3
102
{ACAD_XDICTIONARY
360
F18
102
}
102
{ACAD_REACTORS
330
EF
102
}
330
EF
100
AcDbVisualStyle
  2
Shaded
 70
    27
 71
     2
 72
     2
 73
     1
 90
        2
 40
-0.6
 41
30.0
 62
     5
 63
     7
 74
     0
 91
        4
 64
     7
 65
   257
 75
     1
175
     1
 42
1.0
 92
        8
 66
   257
 43
1.0
 76
     1
 77
     6
 78
     2
 67
     8
 79
     3
170
     0
171
     0
290
     0
174
     0
 93
        5
 44
0.0
173
     0
291
     0
 45
0.0
1001
ACAD
1000
AcDbSavedByObjectVersion
1070
     0
  0
VISUALSTYLE
  5
1F2
102
{ACAD_XDICTIONARY
360
F16
102
}
102
{ACAD_REACTORS
330
EF
102
}
330
EF
100
AcDbVisualStyle
  2
Shaded with edges
 70
    26
 71
     2
 72
     2
 73
     1
 90
        2
 40
-0.6
 41
30.0
 62
     5
 63
     7
 74
     1
 91
        2
 64
     7
 65
   257
 75
     2
175
     1
 42
1.0
 92
        8
 66
   257
 43
1.0
 76
     1
 77
     6
 78
     2
 67
     7
 79
     3
170
     0
171
     0
290
     0
174
     0
 93
        5
 44
0.0
173
     0
291
     0
 45
0.0
1001
ACAD
1000
AcDbSavedByObjectVersion
1070
     0
  0
VISUALSTYLE
  5
1EF
102
{ACAD_XDICTIONARY
360
F10
102
}
102
{ACAD_REACTORS
330
EF
102
}
330
EF
100
AcDbVisualStyle
  2
Shades of Gray
 70
    23
 71
     2
 72
     2
 73
     3
 90
        0
 40
-0.6
 41
-30.0
 62
     5
 63
     7
 74
     2
 91
        2
 64
     7
 65
     7
 75
     1
175
     1
 42
40.0
 92
        8
 66
     7
 43
1.0
 76
     1
 77
     6
 78
     2
 67
     7
 79
     3
170
     0
171
     0
290
     0
174
     0
 93
        1
 44
0.0
173
     0
291
     0
 45
0.0
1001
ACAD
1000
AcDbSavedByObjectVersion
1070
     0
  0
VISUALSTYLE
  5
1F0
102
{ACAD_XDICTIONARY
360
F12
102
}
102
{ACAD_REACTORS
330
EF
102
}
330
EF
100
AcDbVisualStyle
  2
Sketchy
 70
    24
 71
     1
 72
     2
 73
     2
 90
        0
 40
-0.6
 41
-30.0
 62
     5
 63
     7
 74
     2
 91
        2
 64
     7
 65
     7
 75
     1
175
     1
 42
40.0
 92
       11
 66
     7
 43
1.0
 76
     1
 77
     6
 78
     2
 67
     7
 79
     6
170
     0
171
     0
290
     0
174
     0
 93
        1
 44
0.0
173
     0
291
     0
 45
0.0
1001
ACAD
1000
AcDbSavedByObjectVersion
1070
     0
  0
VISUALSTYLE
  5
FC
102
{ACAD_XDICTIONARY
360
F00
102
}
102
{ACAD_REACTORS
330
EF
102
}
330
EF
100
AcDbVisualStyle
  2
Thicken
 70
    13
 71
     2
 72
     2
 73
     1
 90
        0
 40
-0.6
 41
-30.0
 62
     5
 63
     7
 74
     1
 91
        4
 64
     7
 65
   257
 75
     1
175
     1
 42
1.0
 92
       12
 66
     7
 43
1.0
 76
     1
 77
     6
 78
     2
 67
     7
 79
     5
170
     0
171
     0
290
     0
174
     0
 93
        1
 44
0.0
173
     0
291
     1
 45
0.0
1001
ACAD
1000
AcDbSavedByObjectVersion
1070
     0
  0
VISUALSTYLE
  5
F6
102
{ACAD_XDICTIONARY
360
EF4
102
}
102
{ACAD_REACTORS
330
EF
102
}
330
EF
100
AcDbVisualStyle
  2
Wireframe
 70
     5
 71
     0
 72
     2
 73
     0
 90
        0
 40
-0.6
 41
-30.0
 62
     5
 63
     7
 74
     1
 91
        4
 64
     7
 65
   257
 75
     1
175
     1
 42
1.0
 92
        0
 66
   257
 43
1.0
 76
     1
 77
     6
 78
     2
 67
     7
 79
     3
170
     0
171
     0
290
     0
174
     0
 93
        1
 44
0.0
173
     0
291
     0
 45
0.0
1001
ACAD
1000
AcDbSavedByObjectVersion
1070
     0
  0
VISUALSTYLE
  5
1F1
102
{ACAD_XDICTIONARY
360
F14
102
}
102
{ACAD_REACTORS
330
EF
102
}
330
EF
100
AcDbVisualStyle
  2
X-Ray
 70
    25
 71
     2
 72
     2
 73
     1
 90
        1
 40
0.5
 41
-30.0
 62
     5
 63
     7
 74
     1
 91
        0
 64
     7
 65
   257
 75
     1
175
     1
 42
1.0
 92
        8
 66
     7
 43
1.0
 76
     1
 77
     6
 78
     2
 67
     7
 79
     3
170
     0
171
     0
290
     0
174
     0
 93
       13
 44
0.0
173
     0
291
     0
 45
0.0
1001
ACAD
1000
AcDbSavedByObjectVersion
1070
     0
  0
DICTIONARYVAR
  5
146
102
{ACAD_REACTORS
330
5E
102
}
330
5E
100
DictionaryVariables
280
     0
  1
1:1
  0
DICTIONARYVAR
  5
259
102
{ACAD_REACTORS
330
5E
102
}
330
5E
100
DictionaryVariables
280
     0
  1
3.500000
  0
DICTIONARYVAR
  5
25A
102
{ACAD_REACTORS
330
5E
102
}
330
5E
100
DictionaryVariables
280
     0
  1
acadiso.lin
  0
DICTIONARYVAR
  5
145
102
{ACAD_REACTORS
330
5E
102
}
330
5E
100
DictionaryVariables
280
     0
  1
STANDARD
  0
DICTIONARYVAR
  5
84
102
{ACAD_REACTORS
330
5E
102
}
330
5E
100
DictionaryVariables
280
     0
  1
STANDARD
  0
DICTIONARYVAR
  5
227
102
{ACAD_REACTORS
330
5E
102
}
330
5E
100
DictionaryVariables
280
     0
  1
Metric50
  0
DICTIONARYVAR
  5
228
102
{ACAD_REACTORS
330
5E
102
}
330
5E
100
DictionaryVariables
280
     0
  1
Metric50
  0
DICTIONARYVAR
  5
5F
102
{ACAD_REACTORS
330
5E
102
}
330
5E
100
DictionaryVariables
280
     0
  1
2
  0
DICTIONARYVAR
  5
63
102
{ACAD_REACTORS
330
5E
102
}
330
5E
100
DictionaryVariables
280
     0
  1
1
  0
DICTIONARYVAR
  5
E89
102
{ACAD_REACTORS
330
5E
102
}
330
5E
100
DictionaryVariables
280
     0
  1
0
  0
DICTIONARYVAR
  5
1AE
102
{ACAD_REACTORS
330
5E
102
}
330
5E
100
DictionaryVariables
280
     0
  1
0
  0
DICTIONARYVAR
  5
1AF
102
{ACAD_REACTORS
330
5E
102
}
330
5E
100
DictionaryVariables
280
     0
  1
0
  0
DICTIONARYVAR
  5
E87
102
{ACAD_REACTORS
330
5E
102
}
330
5E
100
DictionaryVariables
280
     0
  1
2
  0
DICTIONARYVAR
  5
E86
102
{ACAD_REACTORS
330
5E
102
}
330
5E
100
DictionaryVariables
280
     0
  1
1
  0
DICTIONARYVAR
  5
ED9
102
{ACAD_REACTORS
330
5E
102
}
330
5E
100
DictionaryVariables
280
     0
  1
80.000000
  0
DICTIONARYVAR
  5
ED8
102
{ACAD_REACTORS
330
5E
102
}
330
5E
100
DictionaryVariables
280
     0
  1
5.000000
  0
DICTIONARYVAR
  5
E88
102
{ACAD_REACTORS
330
5E
102
}
330
5E
100
DictionaryVariables
280
     0
  1
127
  0
DICTIONARYVAR
  5
EDA
102
{ACAD_REACTORS
330
5E
102
}
330
5E
100
DictionaryVariables
280
     0
  1
2
  0
DICTIONARY
  5
F1C
330
21C
100
AcDbDictionary
280
     1
281
     1
  3
ACAD_XREC_ROUNDTRIP
360
F1D
  0
DICTIONARY
  5
EE1
330
D3
100
AcDbDictionary
280
     1
281
     1
  3
ACAD_XREC_ROUNDTRIP
360
EE2
  0
DICTIONARY
  5
EE3
330
D7
100
AcDbDictionary
280
     1
281
     1
  3
ACAD_XREC_ROUNDTRIP
360
EE4
  0
DICTIONARY
  5
EDE
330
22
100
AcDbDictionary
280
     1
281
     1
  3
ACAD_XREC_ROUNDTRIP
360
EDF
  0
DICTIONARY
  5
1F9
330
ED
100
AcDbDictionary
280
     1
281
     1
  3
ACAD_XREC_ROUNDTRIP
360
EE6
  3
FBXASSET
360
1FA
  0
DICTIONARY
  5
1F7
330
EC
100
AcDbDictionary
280
     1
281
     1
  3
ACAD_XREC_ROUNDTRIP
360
EE5
  3
FBXASSET
360
1F8
  0
DICTIONARY
  5
173
330
EE
100
AcDbDictionary
280
     1
281
     1
  3
ACAD_XREC_ROUNDTRIP
360
EE7
  3
BUMPTILE
360
175
  3
DIFFUSETILE
360
174
  3
FBXASSET
360
1FB
  3
OPACITYTILE
360
176
  3
REFLECTIONTILE
360
177
  0
DICTIONARY
  5
F08
330
12E
100
AcDbDictionary
280
     1
281
     1
  3
ACAD_XREC_ROUNDTRIP
360
F09
  0
DICTIONARY
  5
F1A
330
21A
100
AcDbDictionary
280
     1
281
     1
  3
ACAD_XREC_ROUNDTRIP
360
F1B
  0
DICTIONARY
  5
162
330
7F
100
AcDbDictionary
280
     1
281
     1
  3
ACAD_ROUNDTRIP_2008_TABLESTYLE_CELLSTYLEMAP
360
EDB
  3
ACAD_XREC_ROUNDTRIP
360
EE0
  0
DICTIONARY
  5
EF2
330
F5
100
AcDbDictionary
280
     1
281
     1
  3
ACAD_XREC_ROUNDTRIP
360
EF3
  0
DICTIONARY
  5
EF0
330
F4
100
AcDbDictionary
280
     1
281
     1
  3
ACAD_XREC_ROUNDTRIP
360
EF1
  0
DICTIONARY
  5
EFE
330
FB
100
AcDbDictionary
280
     1
281
     1
  3
ACAD_XREC_ROUNDTRIP
360
EFF
  0
DICTIONARY
  5
F06
330
FF
100
AcDbDictionary
280
     1
281
     1
  3
ACAD_XREC_ROUNDTRIP
360
F07
  0
DICTIONARY
  5
EF8
330
F8
100
AcDbDictionary
280
     1
281
     1
  3
ACAD_XREC_ROUNDTRIP
360
EF9
  0
DICTIONARY
  5
EFC
330
FA
100
AcDbDictionary
280
     1
281
     1
  3
ACAD_XREC_ROUNDTRIP
360
EFD
  0
DICTIONARY
  5
F0E
330
1E6
100
AcDbDictionary
280
     1
281
     1
  3
ACAD_XREC_ROUNDTRIP
360
F0F
  0
DICTIONARY
  5
F04
330
FE
100
AcDbDictionary
280
     1
281
     1
  3
ACAD_XREC_ROUNDTRIP
360
F05
  0
DICTIONARY
  5
EE8
330
F0
100
AcDbDictionary
280
     1
281
     1
  3
ACAD_XREC_ROUNDTRIP
360
EE9
  0
DICTIONARY
  5
EEA
330
F1
100
AcDbDictionary
280
     1
281
     1
  3
ACAD_XREC_ROUNDTRIP
360
EEB
  0
DICTIONARY
  5
EEC
330
F2
100
AcDbDictionary
280
     1
281
     1
  3
ACAD_XREC_ROUNDTRIP
360
EED
  0
DICTIONARY
  5
EEE
330
F3
100
AcDbDictionary
280
     1
281
     1
  3
ACAD_XREC_ROUNDTRIP
360
EEF
  0
DICTIONARY
  5
EF6
330
F7
100
AcDbDictionary
280
     1
281
     1
  3
ACAD_XREC_ROUNDTRIP
360
EF7
  0
DICTIONARY
  5
F0A
330
1E4
100
AcDbDictionary
280
     1
281
     1
  3
ACAD_XREC_ROUNDTRIP
360
F0B
  0
DICTIONARY
  5
F02
330
FD
100
AcDbDictionary
280
     1
281
     1
  3
ACAD_XREC_ROUNDTRIP
360
F03
  0
DICTIONARY
  5
F0C
330
1E5
100
AcDbDictionary
280
     1
281
     1
  3
ACAD_XREC_ROUNDTRIP
360
F0D
  0
DICTIONARY
  5
EFA
330
F9
100
AcDbDictionary
280
     1
281
     1
  3
ACAD_XREC_ROUNDTRIP
360
EFB
  0
DICTIONARY
  5
F18
330
1F3
100
AcDbDictionary
280
     1
281
     1
  3
ACAD_XREC_ROUNDTRIP
360
F19
  0
DICTIONARY
  5
F16
330
1F2
100
AcDbDictionary
280
     1
281
     1
  3
ACAD_XREC_ROUNDTRIP
360
F17
  0
DICTIONARY
  5
F10
330
1EF
100
AcDbDictionary
280
     1
281
     1
  3
ACAD_XREC_ROUNDTRIP
360
F11
  0
DICTIONARY
  5
F12
330
1F0
100
AcDbDictionary
280
     1
281
     1
  3
ACAD_XREC_ROUNDTRIP
360
F13
  0
DICTIONARY
  5
F00
330
FC
100
AcDbDictionary
280
     1
281
     1
  3
ACAD_XREC_ROUNDTRIP
360
F01
  0
DICTIONARY
  5
EF4
330
F6
100
AcDbDictionary
280
     1
281
     1
  3
ACAD_XREC_ROUNDTRIP
360
EF5
  0
DICTIONARY
  5
F14
330
1F1
100
AcDbDictionary
280
     1
281
     1
  3
ACAD_XREC_ROUNDTRIP
360
F15
  0
XRECORD
  5
F1D
102
{ACAD_REACTORS
330
F1C
102
}
330
F1C
100
AcDbXrecord
280
     1
102
DISPLAYNAME
  1
Metric50
102
FLAGS
 90
        0
  0
XRECORD
  5
EE2
102
{ACAD_REACTORS
330
EE1
102
}
330
EE1
100
AcDbXrecord
280
     1
102
SHADEPLOT
 70
     0
102
SHADEPLOTRESLEVEL
 70
     2
102
SHADEPLOTCUSTOMDPI
 70
   300
  0
XRECORD
  5
EE4
102
{ACAD_REACTORS
330
EE3
102
}
330
EE3
100
AcDbXrecord
280
     1
102
SHADEPLOT
 70
     0
102
SHADEPLOTRESLEVEL
 70
     2
102
SHADEPLOTCUSTOMDPI
 70
   300
  0
XRECORD
  5
EDF
102
{ACAD_REACTORS
330
EDE
102
}
330
EDE
100
AcDbXrecord
280
     1
102
SHADEPLOT
 70
     0
102
SHADEPLOTRESLEVEL
 70
     2
102
SHADEPLOTCUSTOMDPI
 70
   300
  0
XRECORD
  5
EE6
102
{ACAD_REACTORS
330
1F9
102
}
330
1F9
100
AcDbXrecord
280
     1
102
MATERIAL
148
0.0
149
0.0
149
0.0
 93
        0
 94
       63
282
     0
 72
     1
 77
     1
171
     1
175
     1
179
     1
273
     0
  0
XRECORD
  5
1FA
102
{ACAD_REACTORS
330
1F9
102
}
330
1F9
100
AcDbXrecord
280
     1
 70
     1
 90
429727718
  1
D62C5603-E3A1-4AEA-B7FB-FE5D8D0755AF
310
504B03040A0000080000CC70623B3DEE336E79000000790000001B0000006175746F6465736B2D64657369676E2D7061636B6167652E786D6C3C3F786D6C2076657273696F6E3D22312E302220656E636F64696E673D227574662D3822203F3E3C666F726D6174733E3C666F726D61743E687474703A2F2F736368656D612E
310
6175746F6465736B2E636F6D2F64657369676E2D7061636B6167652F323030393C2F666F726D61743E3C2F666F726D6174733E504B0304140006080800CC70623BD486FD9CA0000000F4000000130000005B436F6E74656E745F54797065735D2E786D6C7D8EC10E82300C865F65E91D8A1E8C310C0EEA1BF002731658846E
310
D98AC1B77784ABF1D8FE5FBFBF75BBCE937A534CCEB38643598122B6FEE978D0B0485F9C41B54DDD7D022595594E1A469170414C76A4D9A4D207E29CF43ECE46F218070CC6BECC4078ACAA135ACF422C856C0E68EA1BF5669944DDD7BCDE7B1F8E415D77AECB980613C2E4AC91FC167A2B244592486606FC29C8FD7F045B9A
310
EF7053A7E60B504B0304140006080800CC70623B853B8169EB0000007C01000008000000636F72652E786D6C8D90416EC3201045AF62CDB6C206821CC7C244919D9CA01740401C94182C03558F5F9C3852BBEB6A467FFE9B197D7EFC9E1EC5975982F5AE035262288C535E5B377690E21535501C055FBC8FBF6C503839990E
310
5619041F179FE64D52DE45E362569DD7661365082642A11EB9E920A89B99642953CC8E702F67A9EE7234257977194EC9EAE275C4EABCCF5EAD5940D4AC6F0E35A568B8F43562CD7046CD199FD07E60174276A7BE677B5EADB0E0D14EEFFB6A31321A0D82627C4084204C3F096B71DD52F6819B16635EADF63F509AF53FA164
310
5DDCD1EDDD17164090FCC8732078B56691CB33A85CD7DCC40F504B0304140006080800CC70623B55019EA25F0000007C00000007000000636E782E786D6C4DCB3B0E80201045D1AD90E915ED2CF8AC45050C11660C8261F98AB1B07AC9C97D42D718D865D3E909258CFD00CCE24AC6E326A164D74DC0B4128928FF32603847
310
2BA13128B1252AC747C6BAB984FC68F0B87FE8960A5C09FE86CFB69FBA01504B0304140006080800CC70623BDBABAAF470010000D40300000C0000006662782F636F72652E786D6CC553D16E823014FD95A6AF4B694182CC941A83FA05FB810A9511A125A5257EFE2E82712ECEB8A7F100CD39F7F69E734AF9FADC366850B6
310
AF8DCE7018308C942E4C59EB2AC3DE1D498AD15A706B8CFB56869196ADCAF00863C12B6B7C374385D14E6907A836A59A41D9F7CA615434B0C8705F7CAA5606D23BA8E84F41278B93AC54100640439DE0BDB320004D43C63716C7C399D30917DCFBBA9CD9BA8469F5B156168B24CED3F7248AC8769F27244EB73B92EED8862C
310
B7F13E0C179B3C8F979C8ECD82BBBABDAA2BAC924E9558448CBD9330242CFA08E3154B5651FCC6D215639C8EE5774DBE2B5F6CF2B5768B68963BB5F5588420E442FC700B1139D4CB01F450C1E918227C2E09DF070D8140C84E1E9AAB8F1340832A9CB13130A5F1376A908D57309505ECF2A0DF179C4E9D30F5B239B87E3823
310
7A79C6F31DE1A8A5AEC08474B03C7837EAE4938639B44E5932B833D2C6B6B279CDC613877FA26EE21F4A2A4C63EC7F29A2F301D1F9F7A0E37D145F504B0304140006080800CC70623B9C113CC27E0000009D0000000B0000006662782F636E782E786D6C4DCCDF0A83201C86E15B91DFB94BFB330DD428C8FB886521330DA7
310
6397BF1A1DECE883878F57749FCDA1B7892F1BBC047A23808C7F84D9FA55424E0BE6803A256208E9EF06C84F9B91703228B1C690F78B66B34CD9A5439DF5CF0BFBF65E35BCA1B8D6A5C6F540381E886698B5741C695F9503EBA150A2F8958E3DC3EA0B504B0304140006080800CC70623B7DF2F77C2A010000120200003100
310
00006662782F41393633353835312D344632462D344230382D423046372D3739314545314133324237412F636F72652E786D6C8D51DB8EC22014FC15C2939B0D2DB4B45643319AE817EC0F6041255A68B86CFCFC856D4D76DF7CE190393373060EDB3DC707F856CE6B6B7A480A0C81328395DA5C7B18C3057510EC3873D686
310
3F34088C18550F330C39BB3A1BA7051AAC09CA84841A2BD5020AEF55806078A44B0FFD7053A328440C89E1EFC52486BBB8AA8214A99D789CF9E05200300FC927E4FB4D5B375D43103D5527440FB843077C5AA3F5861C8F645F5787F59E95B390B318B55CE45AA638FAA2957BD7248B390B7A7CC51F9C124149C82B8C378810
310
84AB2F42B7B8DD56F413775B8C5999E9FF4471926F8AA236A1AE96B8B3CC434E5839373893369E1FAF30EA395917409EB7F26AF8801C171837A4A6AC9C89E9F9C9B1A58BA30FD6A5EF5DDDCF894B9AD9B6A59C957943A9FCAE2FD5BC4DFE03504B0304140006080800CC70623BAD7543B64E01000033030000300000006662
310
782F41393633353835312D344632462D344230382D423046372D3739314545314133324237412F636E782E786D6CD593CD6EC32010845F0571AD6CE3D48AD20813A9873E410FBD12D82434182C7EAAE6EDBB2424CD25871E7B41D6EC30B3FA84F9E67BB2E40B4234DE8DB46F1925E094D7C6ED479AD3AE5951B2113C789FEE
310
6C943839C1488B4C05DF079FE72A69D8C96C13AAD6B8631503449F83828872B949AC57D26200B826A308D316B4064D6E46FCDA41C05550DC9E483A00797BFD207EFB092A45DE9514C1BBD22178396BD39D891265658C238DEA00936C654E5E433CB65A26D9F6EDB5EBC14EBF49A45CB856E66048291F6939A9A81BB5C89177
310
38143CA680F4AA299D66A042CEB3354A2684DC9D8D178FE0D9B8B41CAAD720F880EE7EF93C0C18769E099ECC04D5A102C8049A8A05632F4DDF376CF1DE0F6BB65C2F8627B65A33C6BB62177CEBBDAD973006829F89F22E814B54F4BC2BE347F8AA8F681390B50FA73F804400B5F542E796F19FF974E7F78DB802FE05E20750
310
4B0304140006080800CC70623BE75B7789680500003C100000340000006662782F41393633353835312D344632462D344230382D423046372D3739314545314133324237412F6F626A656374732E786D6CAD575B8F9B3818FD2B887D06C22499CB8AA1CA655245D5B455A356FB305264C061D8018C6C3393D95FBFC7600890
310
A4CD5EF210B0B1BFEBF98E3F7B1FF6596ABC522E1296DF9BAE3D320D9A872C4AF2F8DE2CE5CEBA358D0FBEC719939D65A691938CDE9B6ADAF4BD98B3B2D05311DD91329583D9D5FC0F438434A7A611A644887B5384CF34233629258BA878B12322891DEFF6B66BD70BFB62634E8AE781D082709A4B588AF91C528CDA28B73F
310
1C998EEF39EABBEFA97FBD6A7C7E9553F9D3D79FE442923C3C523610337627CB87ABE99D359D4CC6D6E4FACAB5E6ABF9D2726FC6A3C5F56271377BB88362213924694B38DD99FE47C48627A1E7D49F5A8BB5E1A74C0A599ED3B0F21F1E56366B89112D681E218F0915D0D6F17AD41FBA2A369DCF6335D62ABBD39779D5DDD1
310
11D4D8DE3CBB96B2E04FB8202E41051754A1AA8E8F76B4C6DFE810B580B1547F4B84911149794252234D024EF8BBE963A95AE27B3D310A9D5C215C7960FAEE415ED75694C6AFB17BCACA5D99A60A9AA65F217B0BFC53292ACB92BF283FAD0D3621576592CB5BED907C2FA8E9DF794E35E97BEA31BED21FEB401ABB94C44839
310
DCACBF0E1C5DA8DA5B2F4DFFD32AD86F543D9E565E7056502E157C00AD2671CD534549AB752FCA9CDA00677A313F04E51B22FF19E57B300579E3C97EB29F682D92935CEC18CF901B7B54FD8C51F362B56FC72FE0B3C1EAE335EDCCBF5AEC39ADB17DC238973F804BA5E6F6BFE7AF1FB32E523BE9F3BD571418E3631DCA4D48
310
5250CF639223210A9446CA30052EDF057BD35F8329C1ECD84552BF0DC8D18BE7BCE23BFE6BD960AB4A7DE79923A103BEBD80F911CBAA2C60DB19B01CF164A5583B772EE6D3FFA56666CBCDA74DC97724A48F9A58967497E489C4D979006FD7A05E227A1EBDD0F737C623387A9C844D3709995625106D157315F8B8392CD4E0
310
A0B9A720C4BE9829CEF37EA1E13111214D53925356365ADA634861B52519DD27A00AEB808EAF0628E6F435519D446F45CF2C9CF5214F0A15B2F6D06B79DA3EE3CBF7F56780D2F4E7EF73A0F5E5B02A38D07DC852C6B7C1FBB6664213E0C39E3EBA7FF4E1AD23EA2829407C85E586727488B751B2DB9502BC7B228A3FD68B6E
310
A65A22397E690AA8D158D7E404EC8CDA235CC3B7D1898680131CEC2CDF2638C65196279577750F15884AEE19F94199155B92B13297978469D4F8D358DF0AEF7631E28DC8F0D9F437D5D39A83B2231A1D52D543813A824EF8D44BCFF2FA6A31BD1E8DAD87F1CCB526B3879935BF59CDADD5C37479BB1CDD4CA7B3556B516589
310
EF352754B706114D9C885EC9131DE6EFEB43D99AFE2391C2F958179413D7CFEF6B1B6DB1E7600F00DE6E5C67454A339A4BA2E0FBA85ED26F045D454F463DBFCE484C2F90F2E5E3666003662ED8F755951A7D1BECD5B30B550B2785C8E7320B7292A4838DDA71BBC863ED7613CAF659337A3354231D4FF4A182A54904C2898C
310
98B28C4AD0CE056CCF332A80986E571EE9DBC305BB5FEB7E509220A58D25CF042D712A806AC0AD0C657FDEF80D2D9CEAA2EE4D1C76F60BFE74219A06527D6F82DF6412526107381E55E353090704D085B52408A8913C4ED159D79BDA71BB4BC506F4831350EB6F975CD22D69BF7AC49B91A2C0A9DDA3D5CA36AD20FC478E37
310
E61844E2352865EBCB61A275A65283CAAA9DD27703B4102F5AF51EF5F573B75CBB5AD38BC845F7A49F82A0966A49C2E3EA5EA0ECD326CD965F1DB402C6FA8B51A4658C5C5E2EC9E214602E55810345408596591009A82E7E7FFACA19EEA299B14A0081A705CB3296EBC14CDF658DCD336EA6D1136881AAEB87B81AB9EE53D5
310
F5EB8BC8362082DA24122F98680A4E7930C01A0079749CEA14382A0783E5EBA5A10F8C098456A03D6A4AEB6BB881E2513747552A5DB22C7EDAF83BD5528081A365F7FF06504B0304140006080000CC70623B000000000000000000000000350000006662782F41393633353835312D344632462D344230382D423046372D37
310
39314545314133324237412F76657274696365732E62696E504B0304140006080800CC70623BF270F1330600000004000000360000006662782F41393633353835312D344632462D344230382D423046372D3739314545314133324237412F747269616E676C65732E62696E636660600000504B0304140006080000CC7062
310
3B000000000000000000000000370000006662782F41393633353835312D344632462D344230382D423046372D3739314545314133324237412F617474726962757465732E62696E504B0304140006080800CC70623B08DA0BD19000000041010000360000006662782F41393633353835312D344632462D344230382D4230
310
46372D3739314545314133324237412F6469726563746F72792E786D6C858F410AC3201045AF22B36F53E9A60B35CBEEBAE80D244E44489C6234F4F835464A48035D0DF398FF9F8AF63D0E6CC63039F212F8F9020C7D47C6792B21C5FE7403D62A1188E2E60C98D7234A5830286103A55745067B9D86B8A3CF9C7F90C11DE6
310
07FB144396D7B6A82D282E9A152AD114D5EF2CB866EEE831B8EEA07A7BB5A8D7D61A2BAAEB7FD5F70921FF497D00504B0304140006080800CC70623BEDD1DC58FD000000A00100003B0000006662782F41393633353835312D344632462D344230382D423046372D3739314545314133324237412F7265736F75726365732F
310
636F72652E786D6C8D504B6E833010BD0A9A6D65B00922041947112427E8052C33A156828DFCA97AFC9A40A576D7CDCCE87D344F8F9FBFE667F689CE6B6B3A6039850C8DB2A336530731DC4903D95970676DF82583CCC8193B5861107C72362E3BA4AC096842428D1D7107A5F7182053CF7474E0D507CE32973124857FE48B
310
540F3961CEF244279DE03EB81420DB9EAC1384436FA353E879B1B182C7A8C75DA3C7F453DF353A1075D537A7BA6464B8F535A99AE14A9A2BBD90E350DD183B5CFABE3AF262350B1EF4FC9351399401471025A527C218A1E53BAB5A5AB765F5469B96525EACF23FA6B88CFF34456DC2A1DCE36E360F82A5202F42F062ED2BAD
310
579969AFDD8A6F504B010214000A0000080000CC70623B3DEE336E79000000790000001B00000000000000000000000000000000006175746F6465736B2D64657369676E2D7061636B6167652E786D6C504B01021400140006080800CC70623BD486FD9CA0000000F40000001300000000000000000000000000B20000005B
310
436F6E74656E745F54797065735D2E786D6C504B01021400140006080800CC70623B853B8169EB0000007C010000080000000000000000000000000083010000636F72652E786D6C504B01021400140006080800CC70623B55019EA25F0000007C000000070000000000000000000000000094020000636E782E786D6C504B
310
01021400140006080800CC70623BDBABAAF470010000D40300000C00000000000000000000000000180300006662782F636F72652E786D6C504B01021400140006080800CC70623B9C113CC27E0000009D0000000B00000000000000000000000000B20400006662782F636E782E786D6C504B01021400140006080800CC70
310
623B7DF2F77C2A010000120200003100000000000000000000000000590500006662782F41393633353835312D344632462D344230382D423046372D3739314545314133324237412F636F72652E786D6C504B01021400140006080800CC70623BAD7543B64E010000330300003000000000000000000000000000D2060000
310
6662782F41393633353835312D344632462D344230382D423046372D3739314545314133324237412F636E782E786D6C504B01021400140006080800CC70623BE75B7789680500003C10000034000000000000000000000000006E0800006662782F41393633353835312D344632462D344230382D423046372D3739314545
310
314133324237412F6F626A656374732E786D6C504B01021400140006080000CC70623B0000000000000000000000003500000000000000000000000000280E00006662782F41393633353835312D344632462D344230382D423046372D3739314545314133324237412F76657274696365732E62696E504B01021400140006
310
080800CC70623BF270F133060000000400000036000000000000000000000000007B0E00006662782F41393633353835312D344632462D344230382D423046372D3739314545314133324237412F747269616E676C65732E62696E504B01021400140006080000CC70623B0000000000000000000000003700000000000000
310
000000000000D50E00006662782F41393633353835312D344632462D344230382D423046372D3739314545314133324237412F617474726962757465732E62696E504B01021400140006080800CC70623B08DA0BD1900000004101000036000000000000000000000000002A0F00006662782F41393633353835312D344632
310
462D344230382D423046372D3739314545314133324237412F6469726563746F72792E786D6C504B01021400140006080800CC70623BEDD1DC58FD000000A00100003B000000000000000000000000000E1000006662782F41393633353835312D344632462D344230382D423046372D3739314545314133324237412F7265
310
736F75726365732F636F72652E786D6C504B0506000000000E000E0080040000641100000000
  0
XRECORD
  5
EE5
102
{ACAD_REACTORS
330
1F7
102
}
330
1F7
100
AcDbXrecord
280
     1
102
MATERIAL
148
0.0
149
0.0
149
0.0
 93
        0
 94
       63
282
     0
 72
     1
 77
     1
171
     1
175
     1
179
     1
273
     0
  0
XRECORD
  5
1F8
102
{ACAD_REACTORS
330
1F7
102
}
330
1F7
100
AcDbXrecord
280
     1
 70
     1
 90
429727718
  1
30362254-06B7-45E0-A893-8CFA70E3D6BC
310
504B03040A0000080000CC70623B3DEE336E79000000790000001B0000006175746F6465736B2D64657369676E2D7061636B6167652E786D6C3C3F786D6C2076657273696F6E3D22312E302220656E636F64696E673D227574662D3822203F3E3C666F726D6174733E3C666F726D61743E687474703A2F2F736368656D612E
310
6175746F6465736B2E636F6D2F64657369676E2D7061636B6167652F323030393C2F666F726D61743E3C2F666F726D6174733E504B0304140006080800CC70623BD486FD9CA0000000F4000000130000005B436F6E74656E745F54797065735D2E786D6C7D8EC10E82300C865F65E91D8A1E8C310C0EEA1BF002731658846E
310
D98AC1B77784ABF1D8FE5FBFBF75BBCE937A534CCEB38643598122B6FEE978D0B0485F9C41B54DDD7D022595594E1A469170414C76A4D9A4D207E29CF43ECE46F218070CC6BECC4078ACAA135ACF422C856C0E68EA1BF5669944DDD7BCDE7B1F8E415D77AECB980613C2E4AC91FC167A2B244592486606FC29C8FD7F045B9A
310
EF7053A7E60B504B0304140006080800CC70623B1EC5D7A3EB0000007C01000008000000636F72652E786D6C8D90416EC3201045AF82665B6103C6756C6122AB4D4ED00B204C5C94182C03558F5F9C3852BBEB6A467FFE9B197D71FC9E6FE8CBACC17AD7032D0820E3B41FAD9B7A48F1820F808E52ACDEC75F36404ECDA687
310
4D0629A6D5A76597B477D1B89855E747B38B2A041301E95B6E7A08FAD3CCAA50296647B8168BD2573599823EBB0CA76447F43862C7BCCF5EAC59410E4DDD9C7973C2755553CCCFA4C603E3040F1565ED3B1FDE4E432BCA0D9622DAF9795FAF464533826484B498524CD807E51D79ED187F21878E10516EF63F505AC67F42C9
310
BA58B1FDDD071640D2FCC87D2045B96591CB3DA85CB7DCE40F504B0304140006080800CC70623B55019EA25F0000007C00000007000000636E782E786D6C4DCB3B0E80201045D1AD90E915ED2CF8AC45050C11660C8261F98AB1B07AC9C97D42D718D865D3E909258CFD00CCE24AC6E326A164D74DC0B4128928FF32603847
310
2BA13128B1252AC747C6BAB984FC68F0B87FE8960A5C09FE86CFB69FBA01504B0304140006080800CC70623B8C9102E971010000D40300000C0000006662782F636F72652E786D6CC5535B6E833010BC8AE5DF0A6C08340F1947A84D4ED00B38C6A128602363A31CBFCB234A53A551FA553EC09AD9F5CE8C31DB9E9B1AF5CA
310
7695D1198E428A91D2D214952E33ECDD315861B4E5CC1AE3BE9561A445A3323CC098B3D21ADFCE9034DA29ED00D5A6503328BA4E398C640D8B0C77F253352214DE4145770A5B214FA2546114020D759C75CE8200340D19DE981F0F6746269C33EFAB6266AB02A655C74A59CCF365BADC27CB5D902ED22848F6340DF238A141
310
BE88E2F57B92BFEDF23523433367AE6A2EEAA455C2A902F398D2751045018D3FA264435F3771F242571B4A1919CA6F9A7C5B3CD9E42BED16F12C776AEB308F40C848FC700B1139D4891EF410CEC810227CC6846F8386402064270EF5C5C709A05E49676C024C61FC95EA45ED154CA5211D1FF4FB8291A913A68E9B83EBBB33
310
E2A7673CDE118E5AE8124C0807CB8377834E366998436B950D7A7746DAD846D4CFD978E0F04FD455FC5D49D2D4C6FE9722321F10997F0F32DC47FE05504B0304140006080800CC70623BFFEA85907E0000009D0000000B0000006662782F636E782E786D6C4DCCD10A83201886E15B91FFDC95D95A811AB6F23E625948A6C3
310
E9D8E5AF46073BFAE0E1E365ED67B3E8ADC3CB78C7815C7240DA3DFC64DCC221C519D7805AC182F7F1EF06C88D9BE6703008B6049F9E274D7A1E938DBB5AE3D6131B2589BA0D3D965551E0B2EA732C9B9A624AAEB41E3A557677029960D9AFB4EF11165F504B0304140006080800CC70623B4FEEA4082C0100001202000031
310
0000006662782F39464131463745442D413632322D343644302D413938332D3331353338454246344243312F636F72652E786D6C8D515B6EC32010BC0AE2AB55850DD871ED0813254D72825EC00192A2C460F1A872FC42ED48ED5F7E00CDCECCCEB26C731F6FE05B39AFADE921293004CA082BB5B9F43086336A21D870E6AC
310
0D7F68109861543DCC30E4ECE26C9C164858139409093556AA051CBC570102714B8F1E7AF1A5C6A11862480C7F2DA6415C878B2A4891CA89C7990F2E050073937C42DE1DB7E4F87ED8A36D4329AA9B3D46DBAEAD504556557BD81DEBDD0761E52CE42C462D17B996298E3E6BE59E35C962CE821E1FF18553435012728A7187
310
0841987E927A8D9B35ADDF70BBC6989599FE4F1427F9A4286A132ABAC49D651EF234CD5CE04CDA78BA3DC2A8FB645D00B9DF8B57E215725C60BCA2A463E54C4CE327C7A65E1C7DB02E7DEFCBF594B864C5CA6CDBD49C957943E9FA5D5FBAF336F90F504B0304140006080800CC70623BAD7543B64E01000033030000300000
310
006662782F39464131463745442D413632322D343644302D413938332D3331353338454246344243312F636E782E786D6CD593CD6EC32010845F0571AD6CE3D48AD20813A9873E410FBD12D82434182C7EAAE6EDBB2424CD25871E7B41D6EC30B3FA84F9E67BB2E40B4234DE8DB46F1925E094D7C6ED479AD3AE5951B2113C
310
789FEE6C943839C1488B4C05DF079FE72A69D8C96C13AAD6B8631503449F83828872B949AC57D26200B826A308D316B4064D6E46FCDA41C05550DC9E483A00797BFD207EFB092A45DE9514C1BBD22178396BD39D891265658C238DEA00936C654E5E433CB65A26D9F6EDB5EBC14EBF49A45CB856E66048291F6939A9A81BB5
310
C8917738143CA680F4AA299D66A042CEB3354A2684DC9D8D178FE0D9B8B41CAAD720F880EE7EF93C0C18769E099ECC04D5A102C8049A8A05632F4DDF376CF1DE0F6BB65C2F8627B65A33C6BB62177CEBBDAD973006829F89F22E814B54F4BC2BE347F8AA8F681390B50FA73F804400B5F542E796F19FF974E7F78DB802FE05
310
E207504B0304140006080800CC70623B16AB87BA640500003C100000340000006662782F39464131463745442D413632322D343644302D413938332D3331353338454246344243312F6F626A656374732E786D6CAD575B6FA33818FD2B887DE6924B3BED8A326A92B68A663B534DD4D13E548A0C38942D60649B369D5FBFC7
310
600890A493BDE42160637FD7F31D7FF63E6FB3D478A55C242CBF3247B66B1A340F5994E4F19559CA8D75611A9F7D8F33263BCB4C232719BD32D5B4E97B316765A1A722BA21652A07B3B7B33F0D11D29C9A46981221AE4C113ED38CD8A4942CA2E2C58E882476BCD9DA23BB5ED8171B73523C0F841684D35CC252CCE79062D4
310
468DFA43D7747CCF51DF7D4FFDEB5593E3AB9CCA9FBEFE241792E4E19EB28198C968BAB8199F5D5A67D3E9C49A9E8F47D6EC76B6B0469F26EEFC7C3EBFBCBEB98462213924694B38DD98FE1D62C393D073EA4FADC5DAF04326852CCF6958F90F0F2B9BB5C48816348F90C7840A68EB78EDF68723159BCEE7891A6B95DDE9D3
310
BCEAEEE8086A6C6F9E5D4B59F0175C10A7A0820BAA5055C7473B5AE3CFDD452D602CD5DF12616444529E90D448938013FE6EFA58AA96F85E4F8C42275708571E98FE6827AF6B2B4AE3D7D83D64E5A64C53054DD3AF90BD06FEA9149565C94FCA0F6B834DC85599E4F2423B24DF0B6AFA979E534DFA9E7A4CC6FA631D486393
310
921829879BF5D781A373557BCB85E97FB90DB62B558F8795179C15944B051F40AB495CF35451D26A4727654E6D8033BD98EF82F21D91FF8AF2DD9982BCF1643BDD4EB516C9492E368C67C88DED563FC36D5EACF66DFF057C3658BDBFA69DF9578B3DA735B64F18C7F20770A9D45CFCF7FCF563D6456A277DBEF78A02637CA2
310
43B90A490AEAB94F72244481D24819A6C0E59B606BFA4B3025981DBB48EAB701D97BF19C577CC77F2D1B6C55A9EF3C732474C0B727303F625995056C3B02963D9EAC146BE78EC5FCEC7FA999EBC5EACBAAE41B12D27B4D2C0BBA49F244E2ECDC81B76B502F113D8F5EE8FB1BE3111CDD4FC2AA9B844CAB1288B68AB90A7CDC
310
1C166AB0D3DC5310625FCC14E779BFD0709F8890A629C9292B1B2DED31A4B0DA928CEE135085754027E3018A397D4D5427D15BD1330B677DC8934285AC3DF45A9EB68FF8F2B8FC0A509AFEECFD0FF2DE25CC6047F7214B195F07EFEB9A094D800F7BFAE8FED187B78EA8A3A400F115961BCAD1215E47C966530AF0EE8128FE
310
58CEBB996A8964FFA529A046635D9353B0336A8F700DDF46271A024E70B0B37C9DE01847591E54DED53D54202AB947E4076556AC49C6CA5C9E1226B7F1A7B1BE15DEED62C41B91E1B3E9AFAAA735036547343A925075041DF0A9979E893B391F8FCFA6967B3EFB644DCF6E5CEBFAE272625DCC6FAF3FB93793C5F90CE1EF57
310
407342756B10D1C489E8953CD1617E5CEECAD6F4EF8914CE5D5D504E5C3F1F9736DA62CFC11E00BCDDB8CC8A9466349744C1F75EBDA4DF09BA8A9E8C7A7E9991989E20E5DBDD6A6003664ED8F7A04A8DBE0DF6EAD9B9AA858342E47399053949D2C146EDB85DE4B176BB0965FBAC19BD19AA918E27FA50C1D22402E144464C
310
59462568E704B6E71915404CB72B8FF4EDE184DDAF753F284990D2C6926782963815403548A70C657FDEF80D2D9CEAA2AE4C1C76F60BFE74219A06527D6582DF6412526107381E55E353090704D085B52408D0933C4ED159D79BDA71BB4BC506F4831350EB6F979CD22D69BF7AC49B91A2C0A9DDA3D5CA36AD20FC478E37E6
310
1844E2352865EBCB6EA275A652E3836BE04EFB400BF1A2556F515F1FBB35B2AB35BD889C744FFA1004B5544B121E57F70215746DD2F5E2C1412B602CBF19455AC6C8E5E9922C4E01E65215385004546899059180EAFCF7A707CE7017CD8CDB0410789AB32C63B91E5CEBBBACB17AC6CD347A022D5075FD106377347AAABA7E
310
7D11590744509B44E205134DC1290F06580320F78E537D3D73540E06CB970B431F185308AD40BBD794D6D77003C5A36E8EAA54BA64597CD8F83BD552A080A365F7FF06504B0304140006080000CC70623B000000000000000000000000350000006662782F39464131463745442D413632322D343644302D413938332D3331
310
353338454246344243312F76657274696365732E62696E504B0304140006080800CC70623BF270F1330600000004000000360000006662782F39464131463745442D413632322D343644302D413938332D3331353338454246344243312F747269616E676C65732E62696E636660600000504B0304140006080000CC70623B
310
000000000000000000000000370000006662782F39464131463745442D413632322D343644302D413938332D3331353338454246344243312F617474726962757465732E62696E504B0304140006080800CC70623B08DA0BD19000000041010000360000006662782F39464131463745442D413632322D343644302D413938
310
332D3331353338454246344243312F6469726563746F72792E786D6C858F410AC3201045AF22B36F53E9A60B35CBEEBAE80D244E44489C6234F4F835464A48035D0DF398FF9F8AF63D0E6CC63039F212F8F9020C7D47C6792B21C5FE7403D62A1188E2E60C98D7234A5830286103A55745067B9D86B8A3CF9C7F90C11DE607
310
FB144396D7B6A82D282E9A152AD114D5EF2CB866EEE831B8EEA07A7BB5A8D7D61A2BAAEB7FD5F70921FF497D00504B0304140006080800CC70623B0D6EF93BFE000000A00100003B0000006662782F39464131463745442D413632322D343644302D413938332D3331353338454246344243312F7265736F75726365732F63
310
6F72652E786D6C8D50596E833010BD0A9ADFCA60B334011947A8694ED00B586642AC041B79A97AFC9A40A5F6AF3F33A3B7689E1E3F7DCD8FEC139DD7D6F4C0720A191A65476DA61E62B892236427C19DB5E1970C322367EC618541F0C9D9B8EC90B226A009093576C41D94DE63804C3DD2D18357379C652E63480A7FCF17A9
310
EE72C29CE5894E3AC17D702940B63D59270887DE46A7D0F36263058F518FBB468FE9A7BE6A7420864373B8D4873369AA8691FA421B3294352543C5CAF65C0F6FEF43CB8BD52C78D0F34F46E550061C419494B6843142CB0F5677F4B52BEB177AEC28E5C52AFF638ACBF84F53D42654E51E77B379102C05791282176B5F693D
310
CB4C7BED567C03504B010214000A0000080000CC70623B3DEE336E79000000790000001B00000000000000000000000000000000006175746F6465736B2D64657369676E2D7061636B6167652E786D6C504B01021400140006080800CC70623BD486FD9CA0000000F40000001300000000000000000000000000B20000005B
310
436F6E74656E745F54797065735D2E786D6C504B01021400140006080800CC70623B1EC5D7A3EB0000007C010000080000000000000000000000000083010000636F72652E786D6C504B01021400140006080800CC70623B55019EA25F0000007C000000070000000000000000000000000094020000636E782E786D6C504B
310
01021400140006080800CC70623B8C9102E971010000D40300000C00000000000000000000000000180300006662782F636F72652E786D6C504B01021400140006080800CC70623BFFEA85907E0000009D0000000B00000000000000000000000000B30400006662782F636E782E786D6C504B01021400140006080800CC70
310
623B4FEEA4082C0100001202000031000000000000000000000000005A0500006662782F39464131463745442D413632322D343644302D413938332D3331353338454246344243312F636F72652E786D6C504B01021400140006080800CC70623BAD7543B64E010000330300003000000000000000000000000000D5060000
310
6662782F39464131463745442D413632322D343644302D413938332D3331353338454246344243312F636E782E786D6C504B01021400140006080800CC70623B16AB87BA640500003C1000003400000000000000000000000000710800006662782F39464131463745442D413632322D343644302D413938332D3331353338
310
454246344243312F6F626A656374732E786D6C504B01021400140006080000CC70623B0000000000000000000000003500000000000000000000000000270E00006662782F39464131463745442D413632322D343644302D413938332D3331353338454246344243312F76657274696365732E62696E504B01021400140006
310
080800CC70623BF270F133060000000400000036000000000000000000000000007A0E00006662782F39464131463745442D413632322D343644302D413938332D3331353338454246344243312F747269616E676C65732E62696E504B01021400140006080000CC70623B0000000000000000000000003700000000000000
310
000000000000D40E00006662782F39464131463745442D413632322D343644302D413938332D3331353338454246344243312F617474726962757465732E62696E504B01021400140006080800CC70623B08DA0BD190000000410100003600000000000000000000000000290F00006662782F39464131463745442D413632
310
322D343644302D413938332D3331353338454246344243312F6469726563746F72792E786D6C504B01021400140006080800CC70623B0D6EF93BFE000000A00100003B000000000000000000000000000D1000006662782F39464131463745442D413632322D343644302D413938332D3331353338454246344243312F7265
310
736F75726365732F636F72652E786D6C504B0506000000000E000E0080040000641100000000
  0
XRECORD
  5
EE7
102
{ACAD_REACTORS
330
173
102
}
330
173
100
AcDbXrecord
280
     1
102
MATERIAL
148
0.0
149
0.0
149
0.0
 93
        0
 94
       63
282
     0
 72
     1
 77
     1
171
     1
175
     1
179
     1
273
     0
  0
XRECORD
  5
175
102
{ACAD_REACTORS
330
173
102
}
330
173
100
AcDbXrecord
280
     1
270
     1
271
     1
  0
XRECORD
  5
174
102
{ACAD_REACTORS
330
173
102
}
330
173
100
AcDbXrecord
280
     1
270
     1
271
     1
  0
XRECORD
  5
1FB
102
{ACAD_REACTORS
330
173
102
}
330
173
100
AcDbXrecord
280
     1
 70
     0
 90
1673772943
  1
ECE7A1D2-D628-4531-984C-D00F80459256
310
504B03040A0000080000CC70623B3DEE336E79000000790000001B0000006175746F6465736B2D64657369676E2D7061636B6167652E786D6C3C3F786D6C2076657273696F6E3D22312E302220656E636F64696E673D227574662D3822203F3E3C666F726D6174733E3C666F726D61743E687474703A2F2F736368656D612E
310
6175746F6465736B2E636F6D2F64657369676E2D7061636B6167652F323030393C2F666F726D61743E3C2F666F726D6174733E504B0304140006080800CC70623BD486FD9CA0000000F4000000130000005B436F6E74656E745F54797065735D2E786D6C7D8EC10E82300C865F65E91D8A1E8C310C0EEA1BF002731658846E
310
D98AC1B77784ABF1D8FE5FBFBF75BBCE937A534CCEB38643598122B6FEE978D0B0485F9C41B54DDD7D022595594E1A469170414C76A4D9A4D207E29CF43ECE46F218070CC6BECC4078ACAA135ACF422C856C0E68EA1BF5669944DDD7BCDE7B1F8E415D77AECB980613C2E4AC91FC167A2B244592486606FC29C8FD7F045B9A
310
EF7053A7E60B504B0304140006080800CC70623BD9DDAED0EC0000007C01000008000000636F72652E786D6C8D90416EC3201045AF82665B61836D9CD8C2444DD39CA01740405C94182C03558F5F9C3852BBEB6A467FFE9B197D7EF89E6EE8CB2CC17A37002D0820E394D7D68D03A478C17B4007C117EFE32F1B20272733C0
310
2A83E0E3E2D3BC49CABB685CCCAAF3DA6CA20CC14440EA969B0182FA34932C648AD911AEC52CD5558EA6A0CF2EC329598D1E47ACCEFBECC59A050463A7EA5833865FEBDD0E37353BE3EE8DBDE3F6786A48D375FBF6CC78B9C282473B3DEFABC5C86834888A900E538A49F5419B9EB47DD5BC907D4F082F57FB1F28CDFA9F50
310
B22ED6D5F6EE030B20687EE43E10BC5CB3C8E51E54AE6B6EE207504B0304140006080800CC70623B55019EA25F0000007C00000007000000636E782E786D6C4DCB3B0E80201045D1AD90E915ED2CF8AC45050C11660C8261F98AB1B07AC9C97D42D718D865D3E909258CFD00CCE24AC6E326A164D74DC0B4128928FF326038
310
472BA13128B1252AC747C6BAB984FC68F0B87FE8960A5C09FE86CFB69FBA01504B0304140006080800CC70623BA24EB22D72010000D40300000C0000006662782F636F72652E786D6CC5535B6E833010BC8AE5DF0A6C5E49888CA3A6694ED00B38E05014B091B1518EDFE511A5A9D228FD2A1F60CDEC7A67C6986DCE4D8D7A
310
69BA4AAB0C073EC548AA5C17952A33ECECD15B61B4E1CC686DBF9561A44423333CC098B3D268D7CE50AE9595CA02AA74216750749DB418E5352C32DCE59FB211BE70162ABA93DF8AFC244AE9073ED050C759670D0840D390E18DF9F1706664C23973AE2A66B62A605A75ACA4C13C4976E1364A12EF355A2EBD384AF65EFA96
310
BC7B8BED2EA6719AAE16FB8491A199335B351775B991C2CA02F390D2D40B028F861F41BCA68B7518BFD0D59A524686F29B26D7164F36B94AD9289CE54E6D1DE6010819891F6E21228B3AD1831EC219194284CF98F06DD01008846CC5A1BEF83801D4CBDC6A1303536877A57A513B0953A94FC707FDBE6064EA84A9E3E6E0FA
310
EE8CF0E9198F7784A316AA0413C2C2F2E0ECA0934D1AE6D05A69BCDE9E91D2A611F573361E38FC1375157F5752AE6B6DFE4B11990F88CCBF0719EE23FF02504B0304140006080800CC70623B408A7D3B7C0000009D0000000B0000006662782F636E782E786D6C4DCCD10A83201886E15B91FFDC552A92A0064DBC8F581632
310
D3703A76F9ABD1C18E3E78F878E5F0D9027ABBFCF2292AE86E2D20171F69F6715550CB827B40839639A5F2770314A7CD293819B45C73AAFB45B35BA61ACAA1C1C7E7855C58C15BC331339661262CC762340413D68D77DA5B42298546CBE6573AF60CEB2F504B0304140006080800CC70623B449FB9BD290100001202000031
310
0000006662782F36394639363044362D344446342D343946362D394244322D3234314243333846323333332F636F72652E786D6C8D515B6EC32010BC0AE22B55850D98B871848994463E412FE002495162B07854397EA176A4F62F3F2C9A9D991D587EB84F37F0AD7D30CEF6905418026DA553C65E7A98E219ED203808EE9D
310
8B7F6810D871D23D2C3014FCE25D9A57483A1BB58D19B54EE9151C43D0110279CB971E06F9A5A7B11A53CC8C70ADE6515EC78BAE4895DB992778883E0700CB907242D17643D7E2538BD869608875438BBAE38922CAC8F1BDD90DB4691A5E2F42C153326A951B95E398B3D1FE599322163C9AE9115F7A3D46ADA0A018778810
310
84E907617BDCEE297BC5BB3DC6BC2EF47FA234AB2745C9D8D8D035EE220B50105E2F0DC1954B9FB747187D9F9D8FA0CCDB042D5FA0C015C65B42DF78BD10F3F3B363CB56C7109DCFDFBBB97E662ED92EB62D13BC2E1BCAE5777DB9966D8A1F504B0304140006080800CC70623BAD7543B64E01000033030000300000006662
310
782F36394639363044362D344446342D343946362D394244322D3234314243333846323333332F636E782E786D6CD593CD6EC32010845F0571AD6CE3D48AD20813A9873E410FBD12D82434182C7EAAE6EDBB2424CD25871E7B41D6EC30B3FA84F9E67BB2E40B4234DE8DB46F1925E094D7C6ED479AD3AE5951B2113C789FEE
310
6C943839C1488B4C05DF079FE72A69D8C96C13AAD6B8631503449F83828872B949AC57D26200B826A308D316B4064D6E46FCDA41C05550DC9E483A00797BFD207EFB092A45DE9514C1BBD22178396BD39D891265658C238DEA00936C654E5E433CB65A26D9F6EDB5EBC14EBF49A45CB856E66048291F6939A9A81BB5C89177
310
38143CA680F4AA299D66A042CEB3354A2684DC9D8D178FE0D9B8B41CAAD720F880EE7EF93C0C18769E099ECC04D5A102C8049A8A05632F4DDF376CF1DE0F6BB65C2F8627B65A33C6BB62177CEBBDAD973006829F89F22E814B54F4BC2BE347F8AA8F681390B50FA73F804400B5F542E796F19FF974E7F78DB802FE05E20750
310
4B0304140006080800CC70623B8D05915C650500003B100000340000006662782F36394639363044362D344446342D343946362D394244322D3234314243333846323333332F6F626A656374732E786D6CAD575B6FA33814FE2B887D06429276DA1565D4266D158D3A339A6846FB502932E050B66023DB74D2FDF5FB190C01
310
9276B2973C046C8ECFF53B17071F77456EBD502133CEAE6CDF9DD81665314F32965ED995DA3A17B6F5310C04E7AA47665B8C14F4CAD6DB7618A48257A5D94AE89654B91AEDDEDDFC61C998326A5B714EA4BCB265FC440BE2924AF184CA6737218AB8E976E7FA6E4338649B0A523E8D98964450A6A029F619B8588D52FE7039
310
B1BD30F0F4F730D0FF866AF6369557DB33949F31A9088B0F848DD8CCFCF9F2767A76E99CCDE733677E3EF59D9BBB9BA5E37F984D16E78BC5E5F5ED25044B25C0C96822E8D60EEFE11B91C581D77CEA34368A1F5329E68CD1B8B61F16D63A1B8E092D294B10C78C4A48EB593D192E7DED9BDEE7995E1B91FDEDD3ACEA9FE831
310
6A756F9F7D4D79F4274C90A7A04248AA51D5F8C718DAE06FB2F75AC4796EBE65D22A88A22223B995679120E2D50E41AA49C260C046A35368846B0BECD0DFF3EBEB8AD4F835768F69B9ADF25C43D30E6B646F807FAA64AD59F61715C7A54127C4AACA98BA3006A9D792DAE165E0D59B61A01FB3A9F9D838D2DAE62445C86166
310
F37564E842E7DE6A69879FEEA2DD5AE7E371E1A5E025154AC307D06A03D73EB5978C58FFA4C8E9033066E0F3BD53BEC1F39F91BE7B55103791EDE6BBB991A2046172CB4581D8B893FA674DDA17A77B3B7C413D1B511FD2743BFF8A38F03A658705E3ADF8015C3A3417FF3D7E439FF591DA0B5F18BC20C1B8981957AE6392A3
310
F43C640C01D1A0B4728E2DD4F26DB4B3C3152A252A3B4E913CEC1C72F012782FF88EFF8637AA552DBEF76408E8A8DE9E50F9E1CB3A2DA0DB1B6039A893B56063DC5B3E3FFB5F72E67AB9FEB4AEC496C4F4C1149625DD662C53E89D7BF0F6151A046260D1337DFDC94502430F83B0EE07A130A224BCAD7DAE1D9FB6CD422FF6
310
920702629C4BB9AE79C12F243C6432A6794E18E5552BA56B431AAB5D91317302B2B071E86C3A42B1A02F999E24061403B5D0EB639195DA655DD3EBEAB4FB862DDF579F014AD0E73C22F99E28DA57FB98E75C6CA2D74D53086D600F4786E0FE3144B771A8A7B900F03594DB8A633CBC49B2EDB69228BB479CF863B5E807AAAB
310
23872F6DFEB4129B949CA33823F58830E86D65621E10047D9DB34D862E8EAC3C2ABC2F7B2C40D67CDFE01F5545B92105AF983AC54D93D69E56FB8E797F88913F898A9FEC705D3F9D1B54EC8426FB500D40A03BD0119B06E1B95DDC7EB8F6975367793EBD70E66733DFB9BC982F9CE564727731999F5D4ECFCE3B8D6A4DC2A0
310
6D50FD148437D110834A64C6CDDF57FBACB5C307A2A477DFE4939736CFEF2B175371E0E10CF0DD1D5C15654E0BCA14D1E87DD02FF93782A162C0A3D95F1524A52770F972BF1EE9809D13CE7DD599467F8ECE9ADD85CE85A34CD45355448C64F9E8A031DC2D596ACC6E5DD93D9B82DE2EF5CAF81363A8E47996A0DE24564A79
310
4115AACE09C55E14540231FDA13C319787134EBF34E3A022514E5B4D9E0826E25C02D5805B15ABE1BEF51B26383D445DD9E875EE33FE4C22DA16427D65A3BCA92CA6D28DD01DF5DC53330704308475351050232CCD31583787BA75774AFB06E5070DD0C8EF484E19968C5D83BA5B90B244D31E54D55A372320FE4786B7EA58
310
44E135AA5467CB7EA333A61683CC6A8C3257034C10CF46F40EF9F5BE59BE5BD30C3C72D235E95D10345C1D45445A5F0BB47E46A5EBE5570F9380B5FA629579952296A773720405982B9DE04011506178964401AA8BDF1FBF0A8EAB6861DD6580C0E38217056766716DAEB2D6FA0917D3E4116581EADB879C4E7CFFB11EFACD
310
3D641311495D92C8676CB409A72D18610D803CE8A626049E8EC1887CB5B44CC39883690DDA8399B4B9855B481E7D71D4A9D22F96E5BB73BF5793020C02137BF837504B0304140006080000CC70623B000000000000000000000000350000006662782F36394639363044362D344446342D343946362D394244322D32343142
310
43333846323333332F76657274696365732E62696E504B0304140006080800CC70623BF270F1330600000004000000360000006662782F36394639363044362D344446342D343946362D394244322D3234314243333846323333332F747269616E676C65732E62696E636660600000504B0304140006080000CC70623B0000
310
00000000000000000000370000006662782F36394639363044362D344446342D343946362D394244322D3234314243333846323333332F617474726962757465732E62696E504B0304140006080800CC70623B08DA0BD19000000041010000360000006662782F36394639363044362D344446342D343946362D394244322D
310
3234314243333846323333332F6469726563746F72792E786D6C858F410AC3201045AF22B36F53E9A60B35CBEEBAE80D244E44489C6234F4F835464A48035D0DF398FF9F8AF63D0E6CC63039F212F8F9020C7D47C6792B21C5FE7403D62A1188E2E60C98D7234A5830286103A55745067B9D86B8A3CF9C7F90C11DE607FB14
310
4396D7B6A82D282E9A152AD114D5EF2CB866EEE831B8EEA07A7BB5A8D7D61A2BAAEB7FD5F70921FF497D00504B0304140006080800CC70623BCA768048FE000000A00100003B0000006662782F36394639363044362D344446342D343946362D394244322D3234314243333846323333332F7265736F75726365732F636F72
310
652E786D6C8D50596E833010BD0A9ADFCA60D600328E9AA639412F609909B1126CE4A5EAF16B0295DABFFECC8CDEA2797AECF8353F924FB44E193D409E5248504B332A3D0D10FC95B4901C39B3C6F85F3248B49871801506CE266BC2B243D2688FDA47549B11775038871E12F988C7004EDE7016A9083E2ADC3D5D84BC8B09
310
D33C8D74D471E6BC8D0192EDC93A815B742658898E651BCB59086ADC356A8C3FD555A1055ED7E7E254D615792D0F075295F585746FF53B694EE78A565DD736979A65AB9933AFE69F8CD2A2F038022F28ED489E135A7CE4554F9BBEA85E68DB53CAB255FEC71496F19FA6A0B42F8B3DEE6673C0F318E4497096AD7DC5F52C33
310
EEB55BFE0D504B010214000A0000080000CC70623B3DEE336E79000000790000001B00000000000000000000000000000000006175746F6465736B2D64657369676E2D7061636B6167652E786D6C504B01021400140006080800CC70623BD486FD9CA0000000F40000001300000000000000000000000000B20000005B436F
310
6E74656E745F54797065735D2E786D6C504B01021400140006080800CC70623BD9DDAED0EC0000007C010000080000000000000000000000000083010000636F72652E786D6C504B01021400140006080800CC70623B55019EA25F0000007C000000070000000000000000000000000095020000636E782E786D6C504B0102
310
1400140006080800CC70623BA24EB22D72010000D40300000C00000000000000000000000000190300006662782F636F72652E786D6C504B01021400140006080800CC70623B408A7D3B7C0000009D0000000B00000000000000000000000000B50400006662782F636E782E786D6C504B01021400140006080800CC70623B
310
449FB9BD290100001202000031000000000000000000000000005A0500006662782F36394639363044362D344446342D343946362D394244322D3234314243333846323333332F636F72652E786D6C504B01021400140006080800CC70623BAD7543B64E010000330300003000000000000000000000000000D20600006662
310
782F36394639363044362D344446342D343946362D394244322D3234314243333846323333332F636E782E786D6C504B01021400140006080800CC70623B8D05915C650500003B10000034000000000000000000000000006E0800006662782F36394639363044362D344446342D343946362D394244322D32343142433338
310
46323333332F6F626A656374732E786D6C504B01021400140006080000CC70623B0000000000000000000000003500000000000000000000000000250E00006662782F36394639363044362D344446342D343946362D394244322D3234314243333846323333332F76657274696365732E62696E504B010214001400060808
310
00CC70623BF270F13306000000040000003600000000000000000000000000780E00006662782F36394639363044362D344446342D343946362D394244322D3234314243333846323333332F747269616E676C65732E62696E504B01021400140006080000CC70623B00000000000000000000000037000000000000000000
310
00000000D20E00006662782F36394639363044362D344446342D343946362D394244322D3234314243333846323333332F617474726962757465732E62696E504B01021400140006080800CC70623B08DA0BD190000000410100003600000000000000000000000000270F00006662782F36394639363044362D344446342D
310
343946362D394244322D3234314243333846323333332F6469726563746F72792E786D6C504B01021400140006080800CC70623BCA768048FE000000A00100003B000000000000000000000000000B1000006662782F36394639363044362D344446342D343946362D394244322D3234314243333846323333332F7265736F
310
75726365732F636F72652E786D6C504B0506000000000E000E0080040000621100000000
  0
XRECORD
  5
176
102
{ACAD_REACTORS
330
173
102
}
330
173
100
AcDbXrecord
280
     1
270
     1
271
     1
  0
XRECORD
  5
177
102
{ACAD_REACTORS
330
173
102
}
330
173
100
AcDbXrecord
280
     1
270
     1
271
     1
  0
XRECORD
  5
F09
102
{ACAD_REACTORS
330
F08
102
}
330
F08
100
AcDbXrecord
280
     1
102
ACAD_ROUNDTRIP_2012_MLEADER_STYLE
298
     1
  0
XRECORD
  5
F1B
102
{ACAD_REACTORS
330
F1A
102
}
330
F1A
100
AcDbXrecord
280
     1
102
DISPLAYNAME
  1
Metric50
102
FLAGS
 90
        0
  0
CELLSTYLEMAP
  5
EDB
102
{ACAD_REACTORS
330
162
102
}
330
162
100
AcDbCellStyleMap
 90
        3
300
CELLSTYLE
  1
TABLEFORMAT_BEGIN
 90
        5
170
     1
 91
        0
 92
    32768
 62
   257
 93
        1
300
CONTENTFORMAT
  1
CONTENTFORMAT_BEGIN
 90
        0
 91
        0
 92
      512
 93
        0
300

 40
0.0
140
1.0
 94
        5
 62
     0
340
11
144
6.0
309
CONTENTFORMAT_END
171
     1
301
MARGIN
  1
CELLMARGIN_BEGIN
 40
1.5
 40
1.5
 40
1.5
 40
1.5
 40
4.5
 40
4.5
309
CELLMARGIN_END
 94
        6
 95
        1
302
GRIDFORMAT
  1
GRIDFORMAT_BEGIN
 90
        0
 91
        1
 62
     0
 92
       -2
340
14
 93
        0
 40
1.125
309
GRIDFORMAT_END
 95
        2
302
GRIDFORMAT
  1
GRIDFORMAT_BEGIN
 90
        0
 91
        1
 62
     0
 92
       -2
340
14
 93
        0
 40
1.125
309
GRIDFORMAT_END
 95
        4
302
GRIDFORMAT
  1
GRIDFORMAT_BEGIN
 90
        0
 91
        1
 62
     0
 92
       -2
340
14
 93
        0
 40
1.125
309
GRIDFORMAT_END
 95
        8
302
GRIDFORMAT
  1
GRIDFORMAT_BEGIN
 90
        0
 91
        1
 62
     0
 92
       -2
340
14
 93
        0
 40
1.125
309
GRIDFORMAT_END
 95
       16
302
GRIDFORMAT
  1
GRIDFORMAT_BEGIN
 90
        0
 91
        1
 62
     0
 92
       -2
340
14
 93
        0
 40
1.125
309
GRIDFORMAT_END
 95
       32
302
GRIDFORMAT
  1
GRIDFORMAT_BEGIN
 90
        0
 91
        1
 62
     0
 92
       -2
340
14
 93
        0
 40
1.125
309
GRIDFORMAT_END
309
TABLEFORMAT_END
  1
CELLSTYLE_BEGIN
 90
        1
 91
        1
300
_TITLE
309
CELLSTYLE_END
300
CELLSTYLE
  1
TABLEFORMAT_BEGIN
 90
        5
170
     1
 91
        0
 92
        0
 62
   257
 93
        1
300
CONTENTFORMAT
  1
CONTENTFORMAT_BEGIN
 90
        0
 91
        0
 92
      512
 93
        0
300

 40
0.0
140
1.0
 94
        5
 62
     0
340
11
144
4.5
309
CONTENTFORMAT_END
171
     1
301
MARGIN
  1
CELLMARGIN_BEGIN
 40
1.5
 40
1.5
 40
1.5
 40
1.5
 40
4.5
 40
4.5
309
CELLMARGIN_END
 94
        6
 95
        1
302
GRIDFORMAT
  1
GRIDFORMAT_BEGIN
 90
        0
 91
        1
 62
     0
 92
       -2
340
14
 93
        0
 40
1.125
309
GRIDFORMAT_END
 95
        2
302
GRIDFORMAT
  1
GRIDFORMAT_BEGIN
 90
        0
 91
        1
 62
     0
 92
       -2
340
14
 93
        0
 40
1.125
309
GRIDFORMAT_END
 95
        4
302
GRIDFORMAT
  1
GRIDFORMAT_BEGIN
 90
        0
 91
        1
 62
     0
 92
       -2
340
14
 93
        0
 40
1.125
309
GRIDFORMAT_END
 95
        8
302
GRIDFORMAT
  1
GRIDFORMAT_BEGIN
 90
        0
 91
        1
 62
     0
 92
       -2
340
14
 93
        0
 40
1.125
309
GRIDFORMAT_END
 95
       16
302
GRIDFORMAT
  1
GRIDFORMAT_BEGIN
 90
        0
 91
        1
 62
     0
 92
       -2
340
14
 93
        0
 40
1.125
309
GRIDFORMAT_END
 95
       32
302
GRIDFORMAT
  1
GRIDFORMAT_BEGIN
 90
        0
 91
        1
 62
     0
 92
       -2
340
14
 93
        0
 40
1.125
309
GRIDFORMAT_END
309
TABLEFORMAT_END
  1
CELLSTYLE_BEGIN
 90
        2
 91
        1
300
_HEADER
309
CELLSTYLE_END
300
CELLSTYLE
  1
TABLEFORMAT_BEGIN
 90
        5
170
     1
 91
        0
 92
        0
 62
   257
 93
        1
300
CONTENTFORMAT
  1
CONTENTFORMAT_BEGIN
 90
        0
 91
        0
 92
      512
 93
        0
300

 40
0.0
140
1.0
 94
        2
 62
     0
340
11
144
4.5
309
CONTENTFORMAT_END
171
     1
301
MARGIN
  1
CELLMARGIN_BEGIN
 40
1.5
 40
1.5
 40
1.5
 40
1.5
 40
4.5
 40
4.5
309
CELLMARGIN_END
 94
        6
 95
        1
302
GRIDFORMAT
  1
GRIDFORMAT_BEGIN
 90
        0
 91
        1
 62
     0
 92
       -2
340
14
 93
        0
 40
1.125
309
GRIDFORMAT_END
 95
        2
302
GRIDFORMAT
  1
GRIDFORMAT_BEGIN
 90
        0
 91
        1
 62
     0
 92
       -2
340
14
 93
        0
 40
1.125
309
GRIDFORMAT_END
 95
        4
302
GRIDFORMAT
  1
GRIDFORMAT_BEGIN
 90
        0
 91
        1
 62
     0
 92
       -2
340
14
 93
        0
 40
1.125
309
GRIDFORMAT_END
 95
        8
302
GRIDFORMAT
  1
GRIDFORMAT_BEGIN
 90
        0
 91
        1
 62
     0
 92
       -2
340
14
 93
        0
 40
1.125
309
GRIDFORMAT_END
 95
       16
302
GRIDFORMAT
  1
GRIDFORMAT_BEGIN
 90
        0
 91
        1
 62
     0
 92
       -2
340
14
 93
        0
 40
1.125
309
GRIDFORMAT_END
 95
       32
302
GRIDFORMAT
  1
GRIDFORMAT_BEGIN
 90
        0
 91
        1
 62
     0
 92
       -2
340
14
 93
        0
 40
1.125
309
GRIDFORMAT_END
309
TABLEFORMAT_END
  1
CELLSTYLE_BEGIN
 90
        3
 91
        2
300
_DATA
309
CELLSTYLE_END
  0
XRECORD
  5
EE0
102
{ACAD_REACTORS
330
162
102
}
330
162
100
AcDbXrecord
280
     1
102
ACAD_ROUNDTRIP_PRE2007_TABLESTYLE
 90
      512
 91
        0
  1

 92
      512
 93
        0
  2

 94
      512
 95
        0
  3

  0
XRECORD
  5
EF3
102
{ACAD_REACTORS
330
EF2
102
}
330
EF2
100
AcDbXrecord
280
     1
102
RTVSPost2010Prop28
280
     1
102
RTVSPost2010PropOp28
 70
     1
102
RTVSPost2010Prop29
280
     1
102
RTVSPost2010PropOp29
 70
     1
102
RTVSPost2010Prop30
280
     0
102
RTVSPost2010PropOp30
 70
     1
102
RTVSPost2010Prop31
280
     0
102
RTVSPost2010PropOp31
 70
     1
102
RTVSPost2010Prop32
280
     0
102
RTVSPost2010PropOp32
 70
     1
102
RTVSPost2010Prop33
280
     0
102
RTVSPost2010PropOp33
 70
     1
102
RTVSPost2010Prop34
280
     0
102
RTVSPost2010PropOp34
 70
     1
102
RTVSPost2010Prop35
280
     0
102
RTVSPost2010PropOp35
 70
     1
102
RTVSPost2010Prop36
280
     0
102
RTVSPost2010PropOp36
 70
     1
102
RTVSPost2010Prop37
 90
       50
102
RTVSPost2010PropOp37
 70
     1
102
RTVSPost2010Prop38
140
0.0
102
RTVSPost2010PropOp38
 70
     1
102
RTVSPost2010Prop39
140
1.0
102
RTVSPost2010PropOp39
 70
     1
102
RTVSPost2010Prop40
 90
        0
102
RTVSPost2010PropOp40
 70
     1
102
RTVSPost2010Prop41ColorIndex
 90
       18
102
RTVSPost2010Prop41ColorRGB
 90
        0
102
RTVSPost2010PropOp41
 70
     1
102
RTVSPost2010Prop42
 90
       50
102
RTVSPost2010PropOp42
 70
     1
102
RTVSPost2010Prop43
 90
        3
102
RTVSPost2010PropOp43
 70
     1
102
RTVSPost2010Prop44ColorIndex
 90
        5
102
RTVSPost2010Prop44ColorRGB
 90
      255
102
RTVSPost2010PropOp44
 70
     1
102
RTVSPost2010Prop45
280
     0
102
RTVSPost2010PropOp45
 70
     1
102
RTVSPost2010Prop46
 90
       50
102
RTVSPost2010PropOp46
 70
     1
102
RTVSPost2010Prop47
 90
       50
102
RTVSPost2010PropOp47
 70
     1
102
RTVSPost2010Prop48
 90
       50
102
RTVSPost2010PropOp48
 70
     1
102
RTVSPost2010Prop49
280
     0
102
RTVSPost2010PropOp49
 70
     1
102
RTVSPost2010Prop50
 90
       50
102
RTVSPost2010PropOp50
 70
     1
102
RTVSPost2010Prop51ColorIndex
 90
      256
102
RTVSPost2010Prop51ColorRGB
 90
-16777216
102
RTVSPost2010PropOp51
 70
     0
102
RTVSPost2010Prop52
140
1.0
102
RTVSPost2010PropOp52
 70
     0
102
RTVSPost2010Prop53
 90
        2
102
RTVSPost2010PropOp53
 70
     1
102
RTVSPost2010Prop54
  1
strokes_ogs.tif
102
RTVSPost2010PropOp54
 70
     1
102
RTVSPost2010Prop55
280
     0
102
RTVSPost2010PropOp55
 70
     1
102
RTVSPost2010Prop56
140
1.0
102
RTVSPost2010PropOp56
 70
     1
102
RTVSPost2010Prop57
140
1.0
102
RTVSPost2010PropOp57
 70
     1
102
RTVSPropertyOp0
 70
     1
102
RTVSPropertyOp1
 70
     1
102
RTVSPropertyOp2
 70
     1
102
RTVSPropertyOp3
 70
     1
102
RTVSPropertyOp4
 70
     1
102
RTVSPropertyOp5
 70
     1
102
RTVSPropertyOp6
 70
     1
102
RTVSPropertyOp7
 70
     1
102
RTVSPropertyOp8
 70
     1
102
RTVSPropertyOp9
 70
     1
102
RTVSPropertyOp10
 70
     1
102
RTVSPropertyOp11
 70
     1
102
RTVSPropertyOp12
 70
     1
102
RTVSPropertyOp13
 70
     1
102
RTVSPropertyOp14
 70
     1
102
RTVSPropertyOp15
 70
     1
102
RTVSPropertyOp16
 70
     1
102
RTVSPropertyOp17
 70
     1
102
RTVSPropertyOp18
 70
     1
102
RTVSPropertyOp19
 70
     1
102
RTVSPropertyOp20
 70
     1
102
RTVSPropertyOp21
 70
     1
102
RTVSPropertyOp22
 70
     1
102
RTVSPropertyOp23
 70
     1
102
RTVSPropertyOp24
 70
     1
102
RTVSPropertyOp25
 70
     1
102
RTVSPropertyOp26
 70
     1
102
RTVSPropertyOp27
 70
     1
102
RTVSPropertyOp28
 70
     1
102
RTVSPropertyOp29
 70
     1
102
RTVSPropertyOp30
 70
     1
102
RTVSPropertyOp31
 70
     1
102
RTVSPropertyOp32
 70
     1
102
RTVSPropertyOp33
 70
     1
102
RTVSPropertyOp34
 70
     1
102
RTVSPropertyOp35
 70
     1
102
RTVSPropertyOp36
 70
     1
102
RTVSPropertyOp37
 70
     1
102
RTVSPropertyOp38
 70
     1
102
RTVSPropertyOp39
 70
     1
102
RTVSPropertyOp40
 70
     1
102
RTVSPropertyOp41
 70
     1
102
RTVSPropertyOp42
 70
     1
102
RTVSPropertyOp43
 70
     1
102
RTVSPropertyOp44
 70
     1
102
RTVSPropertyOp45
 70
     1
102
RTVSPropertyOp46
 70
     1
102
RTVSPropertyOp47
 70
     1
102
RTVSPropertyOp48
 70
     1
102
RTVSPropertyOp49
 70
     1
102
RTVSPropertyOp50
 70
     1
102
RTVSPropertyOp51
 70
     0
102
RTVSPropertyOp52
 70
     0
102
RTVSPropertyOp53
 70
     1
102
RTVSPropertyOp54
 70
     1
102
RTVSPropertyOp55
 70
     1
102
RTVSPropertyOp56
 70
     1
102
RTVSPropertyOp57
 70
     1
102
RTVSPropertyOp58
 70
     1
102
RTVSPropertyOp59
 70
     1
102
RTVSPropertyOp60
 70
     1
102
RTVSPropertyOp61
 70
     1
102
RTVSPropertyOp62
 70
     1
  0
XRECORD
  5
EF1
102
{ACAD_REACTORS
330
EF0
102
}
330
EF0
100
AcDbXrecord
280
     1
102
RTVSPost2010Prop28
280
     0
102
RTVSPost2010PropOp28
 70
     1
102
RTVSPost2010Prop29
280
     1
102
RTVSPost2010PropOp29
 70
     1
102
RTVSPost2010Prop30
280
     1
102
RTVSPost2010PropOp30
 70
     1
102
RTVSPost2010Prop31
280
     0
102
RTVSPost2010PropOp31
 70
     1
102
RTVSPost2010Prop32
280
     0
102
RTVSPost2010PropOp32
 70
     1
102
RTVSPost2010Prop33
280
     0
102
RTVSPost2010PropOp33
 70
     1
102
RTVSPost2010Prop34
280
     0
102
RTVSPost2010PropOp34
 70
     1
102
RTVSPost2010Prop35
280
     0
102
RTVSPost2010PropOp35
 70
     1
102
RTVSPost2010Prop36
280
     0
102
RTVSPost2010PropOp36
 70
     1
102
RTVSPost2010Prop37
 90
       50
102
RTVSPost2010PropOp37
 70
     1
102
RTVSPost2010Prop38
140
0.0
102
RTVSPost2010PropOp38
 70
     1
102
RTVSPost2010Prop39
140
1.0
102
RTVSPost2010PropOp39
 70
     1
102
RTVSPost2010Prop40
 90
        0
102
RTVSPost2010PropOp40
 70
     1
102
RTVSPost2010Prop41ColorIndex
 90
       18
102
RTVSPost2010Prop41ColorRGB
 90
        0
102
RTVSPost2010PropOp41
 70
     1
102
RTVSPost2010Prop42
 90
       50
102
RTVSPost2010PropOp42
 70
     1
102
RTVSPost2010Prop43
 90
        3
102
RTVSPost2010PropOp43
 70
     1
102
RTVSPost2010Prop44ColorIndex
 90
        5
102
RTVSPost2010Prop44ColorRGB
 90
      255
102
RTVSPost2010PropOp44
 70
     1
102
RTVSPost2010Prop45
280
     0
102
RTVSPost2010PropOp45
 70
     1
102
RTVSPost2010Prop46
 90
       50
102
RTVSPost2010PropOp46
 70
     1
102
RTVSPost2010Prop47
 90
       50
102
RTVSPost2010PropOp47
 70
     1
102
RTVSPost2010Prop48
 90
       50
102
RTVSPost2010PropOp48
 70
     1
102
RTVSPost2010Prop49
280
     0
102
RTVSPost2010PropOp49
 70
     1
102
RTVSPost2010Prop50
 90
       50
102
RTVSPost2010PropOp50
 70
     1
102
RTVSPost2010Prop51ColorIndex
 90
      256
102
RTVSPost2010Prop51ColorRGB
 90
-16777216
102
RTVSPost2010PropOp51
 70
     0
102
RTVSPost2010Prop52
140
1.0
102
RTVSPost2010PropOp52
 70
     0
102
RTVSPost2010Prop53
 90
        2
102
RTVSPost2010PropOp53
 70
     1
102
RTVSPost2010Prop54
  1
strokes_ogs.tif
102
RTVSPost2010PropOp54
 70
     1
102
RTVSPost2010Prop55
280
     0
102
RTVSPost2010PropOp55
 70
     1
102
RTVSPost2010Prop56
140
1.0
102
RTVSPost2010PropOp56
 70
     1
102
RTVSPost2010Prop57
140
1.0
102
RTVSPost2010PropOp57
 70
     1
102
RTVSPropertyOp0
 70
     1
102
RTVSPropertyOp1
 70
     1
102
RTVSPropertyOp2
 70
     1
102
RTVSPropertyOp3
 70
     1
102
RTVSPropertyOp4
 70
     1
102
RTVSPropertyOp5
 70
     1
102
RTVSPropertyOp6
 70
     1
102
RTVSPropertyOp7
 70
     1
102
RTVSPropertyOp8
 70
     1
102
RTVSPropertyOp9
 70
     1
102
RTVSPropertyOp10
 70
     1
102
RTVSPropertyOp11
 70
     1
102
RTVSPropertyOp12
 70
     1
102
RTVSPropertyOp13
 70
     1
102
RTVSPropertyOp14
 70
     1
102
RTVSPropertyOp15
 70
     1
102
RTVSPropertyOp16
 70
     1
102
RTVSPropertyOp17
 70
     1
102
RTVSPropertyOp18
 70
     1
102
RTVSPropertyOp19
 70
     1
102
RTVSPropertyOp20
 70
     1
102
RTVSPropertyOp21
 70
     1
102
RTVSPropertyOp22
 70
     1
102
RTVSPropertyOp23
 70
     1
102
RTVSPropertyOp24
 70
     1
102
RTVSPropertyOp25
 70
     1
102
RTVSPropertyOp26
 70
     1
102
RTVSPropertyOp27
 70
     1
102
RTVSPropertyOp28
 70
     1
102
RTVSPropertyOp29
 70
     1
102
RTVSPropertyOp30
 70
     1
102
RTVSPropertyOp31
 70
     1
102
RTVSPropertyOp32
 70
     1
102
RTVSPropertyOp33
 70
     1
102
RTVSPropertyOp34
 70
     1
102
RTVSPropertyOp35
 70
     1
102
RTVSPropertyOp36
 70
     1
102
RTVSPropertyOp37
 70
     1
102
RTVSPropertyOp38
 70
     1
102
RTVSPropertyOp39
 70
     1
102
RTVSPropertyOp40
 70
     1
102
RTVSPropertyOp41
 70
     1
102
RTVSPropertyOp42
 70
     1
102
RTVSPropertyOp43
 70
     1
102
RTVSPropertyOp44
 70
     1
102
RTVSPropertyOp45
 70
     1
102
RTVSPropertyOp46
 70
     1
102
RTVSPropertyOp47
 70
     1
102
RTVSPropertyOp48
 70
     1
102
RTVSPropertyOp49
 70
     1
102
RTVSPropertyOp50
 70
     1
102
RTVSPropertyOp51
 70
     0
102
RTVSPropertyOp52
 70
     0
102
RTVSPropertyOp53
 70
     1
102
RTVSPropertyOp54
 70
     1
102
RTVSPropertyOp55
 70
     1
102
RTVSPropertyOp56
 70
     1
102
RTVSPropertyOp57
 70
     1
102
RTVSPropertyOp58
 70
     1
102
RTVSPropertyOp59
 70
     1
102
RTVSPropertyOp60
 70
     1
102
RTVSPropertyOp61
 70
     1
102
RTVSPropertyOp62
 70
     1
  0
XRECORD
  5
EFF
102
{ACAD_REACTORS
330
EFE
102
}
330
EFE
100
AcDbXrecord
280
     1
102
RTVSPost2010Prop28
280
     0
102
RTVSPost2010PropOp28
 70
     1
102
RTVSPost2010Prop29
280
     1
102
RTVSPost2010PropOp29
 70
     1
102
RTVSPost2010Prop30
280
     1
102
RTVSPost2010PropOp30
 70
     1
102
RTVSPost2010Prop31
280
     0
102
RTVSPost2010PropOp31
 70
     1
102
RTVSPost2010Prop32
280
     0
102
RTVSPost2010PropOp32
 70
     1
102
RTVSPost2010Prop33
280
     0
102
RTVSPost2010PropOp33
 70
     1
102
RTVSPost2010Prop34
280
     0
102
RTVSPost2010PropOp34
 70
     1
102
RTVSPost2010Prop35
280
     0
102
RTVSPost2010PropOp35
 70
     1
102
RTVSPost2010Prop36
280
     0
102
RTVSPost2010PropOp36
 70
     1
102
RTVSPost2010Prop37
 90
       50
102
RTVSPost2010PropOp37
 70
     1
102
RTVSPost2010Prop38
140
0.0
102
RTVSPost2010PropOp38
 70
     1
102
RTVSPost2010Prop39
140
1.0
102
RTVSPost2010PropOp39
 70
     1
102
RTVSPost2010Prop40
 90
        0
102
RTVSPost2010PropOp40
 70
     1
102
RTVSPost2010Prop41ColorIndex
 90
       18
102
RTVSPost2010Prop41ColorRGB
 90
        0
102
RTVSPost2010PropOp41
 70
     1
102
RTVSPost2010Prop42
 90
       50
102
RTVSPost2010PropOp42
 70
     1
102
RTVSPost2010Prop43
 90
        3
102
RTVSPost2010PropOp43
 70
     1
102
RTVSPost2010Prop44ColorIndex
 90
        5
102
RTVSPost2010Prop44ColorRGB
 90
      255
102
RTVSPost2010PropOp44
 70
     1
102
RTVSPost2010Prop45
280
     0
102
RTVSPost2010PropOp45
 70
     1
102
RTVSPost2010Prop46
 90
       50
102
RTVSPost2010PropOp46
 70
     1
102
RTVSPost2010Prop47
 90
       50
102
RTVSPost2010PropOp47
 70
     1
102
RTVSPost2010Prop48
 90
       50
102
RTVSPost2010PropOp48
 70
     1
102
RTVSPost2010Prop49
280
     0
102
RTVSPost2010PropOp49
 70
     1
102
RTVSPost2010Prop50
 90
       50
102
RTVSPost2010PropOp50
 70
     1
102
RTVSPost2010Prop51ColorIndex
 90
      256
102
RTVSPost2010Prop51ColorRGB
 90
-16777216
102
RTVSPost2010PropOp51
 70
     0
102
RTVSPost2010Prop52
140
1.0
102
RTVSPost2010PropOp52
 70
     0
102
RTVSPost2010Prop53
 90
        2
102
RTVSPost2010PropOp53
 70
     1
102
RTVSPost2010Prop54
  1
strokes_ogs.tif
102
RTVSPost2010PropOp54
 70
     1
102
RTVSPost2010Prop55
280
     0
102
RTVSPost2010PropOp55
 70
     1
102
RTVSPost2010Prop56
140
1.0
102
RTVSPost2010PropOp56
 70
     1
102
RTVSPost2010Prop57
140
1.0
102
RTVSPost2010PropOp57
 70
     1
102
RTVSPropertyOp0
 70
     1
102
RTVSPropertyOp1
 70
     1
102
RTVSPropertyOp2
 70
     1
102
RTVSPropertyOp3
 70
     1
102
RTVSPropertyOp4
 70
     1
102
RTVSPropertyOp5
 70
     1
102
RTVSPropertyOp6
 70
     1
102
RTVSPropertyOp7
 70
     1
102
RTVSPropertyOp8
 70
     1
102
RTVSPropertyOp9
 70
     1
102
RTVSPropertyOp10
 70
     1
102
RTVSPropertyOp11
 70
     1
102
RTVSPropertyOp12
 70
     1
102
RTVSPropertyOp13
 70
     1
102
RTVSPropertyOp14
 70
     1
102
RTVSPropertyOp15
 70
     1
102
RTVSPropertyOp16
 70
     1
102
RTVSPropertyOp17
 70
     1
102
RTVSPropertyOp18
 70
     1
102
RTVSPropertyOp19
 70
     1
102
RTVSPropertyOp20
 70
     1
102
RTVSPropertyOp21
 70
     1
102
RTVSPropertyOp22
 70
     1
102
RTVSPropertyOp23
 70
     1
102
RTVSPropertyOp24
 70
     1
102
RTVSPropertyOp25
 70
     1
102
RTVSPropertyOp26
 70
     1
102
RTVSPropertyOp27
 70
     1
102
RTVSPropertyOp28
 70
     1
102
RTVSPropertyOp29
 70
     1
102
RTVSPropertyOp30
 70
     1
102
RTVSPropertyOp31
 70
     1
102
RTVSPropertyOp32
 70
     1
102
RTVSPropertyOp33
 70
     1
102
RTVSPropertyOp34
 70
     1
102
RTVSPropertyOp35
 70
     1
102
RTVSPropertyOp36
 70
     1
102
RTVSPropertyOp37
 70
     1
102
RTVSPropertyOp38
 70
     1
102
RTVSPropertyOp39
 70
     1
102
RTVSPropertyOp40
 70
     1
102
RTVSPropertyOp41
 70
     1
102
RTVSPropertyOp42
 70
     1
102
RTVSPropertyOp43
 70
     1
102
RTVSPropertyOp44
 70
     1
102
RTVSPropertyOp45
 70
     1
102
RTVSPropertyOp46
 70
     1
102
RTVSPropertyOp47
 70
     1
102
RTVSPropertyOp48
 70
     1
102
RTVSPropertyOp49
 70
     1
102
RTVSPropertyOp50
 70
     1
102
RTVSPropertyOp51
 70
     0
102
RTVSPropertyOp52
 70
     0
102
RTVSPropertyOp53
 70
     1
102
RTVSPropertyOp54
 70
     1
102
RTVSPropertyOp55
 70
     1
102
RTVSPropertyOp56
 70
     1
102
RTVSPropertyOp57
 70
     1
102
RTVSPropertyOp58
 70
     1
102
RTVSPropertyOp59
 70
     1
102
RTVSPropertyOp60
 70
     1
102
RTVSPropertyOp61
 70
     1
102
RTVSPropertyOp62
 70
     1
  0
XRECORD
  5
F07
102
{ACAD_REACTORS
330
F06
102
}
330
F06
100
AcDbXrecord
280
     1
102
RTVSPost2010Prop28
280
     0
102
RTVSPost2010PropOp28
 70
     1
102
RTVSPost2010Prop29
280
     1
102
RTVSPost2010PropOp29
 70
     1
102
RTVSPost2010Prop30
280
     1
102
RTVSPost2010PropOp30
 70
     1
102
RTVSPost2010Prop31
280
     0
102
RTVSPost2010PropOp31
 70
     1
102
RTVSPost2010Prop32
280
     0
102
RTVSPost2010PropOp32
 70
     1
102
RTVSPost2010Prop33
280
     0
102
RTVSPost2010PropOp33
 70
     1
102
RTVSPost2010Prop34
280
     0
102
RTVSPost2010PropOp34
 70
     1
102
RTVSPost2010Prop35
280
     0
102
RTVSPost2010PropOp35
 70
     1
102
RTVSPost2010Prop36
280
     0
102
RTVSPost2010PropOp36
 70
     1
102
RTVSPost2010Prop37
 90
       50
102
RTVSPost2010PropOp37
 70
     1
102
RTVSPost2010Prop38
140
0.0
102
RTVSPost2010PropOp38
 70
     1
102
RTVSPost2010Prop39
140
1.0
102
RTVSPost2010PropOp39
 70
     1
102
RTVSPost2010Prop40
 90
        0
102
RTVSPost2010PropOp40
 70
     1
102
RTVSPost2010Prop41ColorIndex
 90
       18
102
RTVSPost2010Prop41ColorRGB
 90
        0
102
RTVSPost2010PropOp41
 70
     1
102
RTVSPost2010Prop42
 90
       50
102
RTVSPost2010PropOp42
 70
     1
102
RTVSPost2010Prop43
 90
        3
102
RTVSPost2010PropOp43
 70
     1
102
RTVSPost2010Prop44ColorIndex
 90
        5
102
RTVSPost2010Prop44ColorRGB
 90
      255
102
RTVSPost2010PropOp44
 70
     1
102
RTVSPost2010Prop45
280
     0
102
RTVSPost2010PropOp45
 70
     1
102
RTVSPost2010Prop46
 90
       50
102
RTVSPost2010PropOp46
 70
     1
102
RTVSPost2010Prop47
 90
       50
102
RTVSPost2010PropOp47
 70
     1
102
RTVSPost2010Prop48
 90
       50
102
RTVSPost2010PropOp48
 70
     1
102
RTVSPost2010Prop49
280
     0
102
RTVSPost2010PropOp49
 70
     1
102
RTVSPost2010Prop50
 90
       50
102
RTVSPost2010PropOp50
 70
     1
102
RTVSPost2010Prop51ColorIndex
 90
      256
102
RTVSPost2010Prop51ColorRGB
 90
-16777216
102
RTVSPost2010PropOp51
 70
     0
102
RTVSPost2010Prop52
140
1.0
102
RTVSPost2010PropOp52
 70
     0
102
RTVSPost2010Prop53
 90
        2
102
RTVSPost2010PropOp53
 70
     1
102
RTVSPost2010Prop54
  1
strokes_ogs.tif
102
RTVSPost2010PropOp54
 70
     1
102
RTVSPost2010Prop55
280
     0
102
RTVSPost2010PropOp55
 70
     1
102
RTVSPost2010Prop56
140
1.0
102
RTVSPost2010PropOp56
 70
     1
102
RTVSPost2010Prop57
140
1.0
102
RTVSPost2010PropOp57
 70
     1
102
RTVSPropertyOp0
 70
     1
102
RTVSPropertyOp1
 70
     1
102
RTVSPropertyOp2
 70
     1
102
RTVSPropertyOp3
 70
     1
102
RTVSPropertyOp4
 70
     1
102
RTVSPropertyOp5
 70
     1
102
RTVSPropertyOp6
 70
     1
102
RTVSPropertyOp7
 70
     1
102
RTVSPropertyOp8
 70
     1
102
RTVSPropertyOp9
 70
     1
102
RTVSPropertyOp10
 70
     1
102
RTVSPropertyOp11
 70
     1
102
RTVSPropertyOp12
 70
     1
102
RTVSPropertyOp13
 70
     1
102
RTVSPropertyOp14
 70
     1
102
RTVSPropertyOp15
 70
     1
102
RTVSPropertyOp16
 70
     1
102
RTVSPropertyOp17
 70
     1
102
RTVSPropertyOp18
 70
     1
102
RTVSPropertyOp19
 70
     1
102
RTVSPropertyOp20
 70
     1
102
RTVSPropertyOp21
 70
     1
102
RTVSPropertyOp22
 70
     1
102
RTVSPropertyOp23
 70
     1
102
RTVSPropertyOp24
 70
     1
102
RTVSPropertyOp25
 70
     1
102
RTVSPropertyOp26
 70
     1
102
RTVSPropertyOp27
 70
     1
102
RTVSPropertyOp28
 70
     1
102
RTVSPropertyOp29
 70
     1
102
RTVSPropertyOp30
 70
     1
102
RTVSPropertyOp31
 70
     1
102
RTVSPropertyOp32
 70
     1
102
RTVSPropertyOp33
 70
     1
102
RTVSPropertyOp34
 70
     1
102
RTVSPropertyOp35
 70
     1
102
RTVSPropertyOp36
 70
     1
102
RTVSPropertyOp37
 70
     1
102
RTVSPropertyOp38
 70
     1
102
RTVSPropertyOp39
 70
     1
102
RTVSPropertyOp40
 70
     1
102
RTVSPropertyOp41
 70
     1
102
RTVSPropertyOp42
 70
     1
102
RTVSPropertyOp43
 70
     1
102
RTVSPropertyOp44
 70
     1
102
RTVSPropertyOp45
 70
     1
102
RTVSPropertyOp46
 70
     1
102
RTVSPropertyOp47
 70
     1
102
RTVSPropertyOp48
 70
     1
102
RTVSPropertyOp49
 70
     1
102
RTVSPropertyOp50
 70
     1
102
RTVSPropertyOp51
 70
     0
102
RTVSPropertyOp52
 70
     0
102
RTVSPropertyOp53
 70
     1
102
RTVSPropertyOp54
 70
     1
102
RTVSPropertyOp55
 70
     1
102
RTVSPropertyOp56
 70
     1
102
RTVSPropertyOp57
 70
     1
102
RTVSPropertyOp58
 70
     1
102
RTVSPropertyOp59
 70
     1
102
RTVSPropertyOp60
 70
     1
102
RTVSPropertyOp61
 70
     1
102
RTVSPropertyOp62
 70
     1
  0
XRECORD
  5
EF9
102
{ACAD_REACTORS
330
EF8
102
}
330
EF8
100
AcDbXrecord
280
     1
102
RTVSPost2010Prop28
280
     0
102
RTVSPost2010PropOp28
 70
     1
102
RTVSPost2010Prop29
280
     1
102
RTVSPost2010PropOp29
 70
     1
102
RTVSPost2010Prop30
280
     1
102
RTVSPost2010PropOp30
 70
     1
102
RTVSPost2010Prop31
280
     0
102
RTVSPost2010PropOp31
 70
     1
102
RTVSPost2010Prop32
280
     0
102
RTVSPost2010PropOp32
 70
     1
102
RTVSPost2010Prop33
280
     0
102
RTVSPost2010PropOp33
 70
     1
102
RTVSPost2010Prop34
280
     0
102
RTVSPost2010PropOp34
 70
     1
102
RTVSPost2010Prop35
280
     0
102
RTVSPost2010PropOp35
 70
     1
102
RTVSPost2010Prop36
280
     0
102
RTVSPost2010PropOp36
 70
     1
102
RTVSPost2010Prop37
 90
       50
102
RTVSPost2010PropOp37
 70
     1
102
RTVSPost2010Prop38
140
0.0
102
RTVSPost2010PropOp38
 70
     1
102
RTVSPost2010Prop39
140
1.0
102
RTVSPost2010PropOp39
 70
     1
102
RTVSPost2010Prop40
 90
        0
102
RTVSPost2010PropOp40
 70
     1
102
RTVSPost2010Prop41ColorIndex
 90
       18
102
RTVSPost2010Prop41ColorRGB
 90
        0
102
RTVSPost2010PropOp41
 70
     1
102
RTVSPost2010Prop42
 90
       50
102
RTVSPost2010PropOp42
 70
     1
102
RTVSPost2010Prop43
 90
        3
102
RTVSPost2010PropOp43
 70
     1
102
RTVSPost2010Prop44ColorIndex
 90
        5
102
RTVSPost2010Prop44ColorRGB
 90
      255
102
RTVSPost2010PropOp44
 70
     1
102
RTVSPost2010Prop45
280
     0
102
RTVSPost2010PropOp45
 70
     1
102
RTVSPost2010Prop46
 90
       50
102
RTVSPost2010PropOp46
 70
     1
102
RTVSPost2010Prop47
 90
       50
102
RTVSPost2010PropOp47
 70
     1
102
RTVSPost2010Prop48
 90
       50
102
RTVSPost2010PropOp48
 70
     1
102
RTVSPost2010Prop49
280
     0
102
RTVSPost2010PropOp49
 70
     1
102
RTVSPost2010Prop50
 90
       50
102
RTVSPost2010PropOp50
 70
     1
102
RTVSPost2010Prop51ColorIndex
 90
      256
102
RTVSPost2010Prop51ColorRGB
 90
-16777216
102
RTVSPost2010PropOp51
 70
     0
102
RTVSPost2010Prop52
140
1.0
102
RTVSPost2010PropOp52
 70
     0
102
RTVSPost2010Prop53
 90
        2
102
RTVSPost2010PropOp53
 70
     1
102
RTVSPost2010Prop54
  1
strokes_ogs.tif
102
RTVSPost2010PropOp54
 70
     1
102
RTVSPost2010Prop55
280
     0
102
RTVSPost2010PropOp55
 70
     1
102
RTVSPost2010Prop56
140
1.0
102
RTVSPost2010PropOp56
 70
     1
102
RTVSPost2010Prop57
140
1.0
102
RTVSPost2010PropOp57
 70
     1
102
RTVSPropertyOp0
 70
     1
102
RTVSPropertyOp1
 70
     1
102
RTVSPropertyOp2
 70
     1
102
RTVSPropertyOp3
 70
     1
102
RTVSPropertyOp4
 70
     1
102
RTVSPropertyOp5
 70
     1
102
RTVSPropertyOp6
 70
     1
102
RTVSPropertyOp7
 70
     1
102
RTVSPropertyOp8
 70
     1
102
RTVSPropertyOp9
 70
     1
102
RTVSPropertyOp10
 70
     1
102
RTVSPropertyOp11
 70
     1
102
RTVSPropertyOp12
 70
     1
102
RTVSPropertyOp13
 70
     1
102
RTVSPropertyOp14
 70
     1
102
RTVSPropertyOp15
 70
     1
102
RTVSPropertyOp16
 70
     1
102
RTVSPropertyOp17
 70
     1
102
RTVSPropertyOp18
 70
     1
102
RTVSPropertyOp19
 70
     1
102
RTVSPropertyOp20
 70
     1
102
RTVSPropertyOp21
 70
     1
102
RTVSPropertyOp22
 70
     1
102
RTVSPropertyOp23
 70
     1
102
RTVSPropertyOp24
 70
     1
102
RTVSPropertyOp25
 70
     1
102
RTVSPropertyOp26
 70
     1
102
RTVSPropertyOp27
 70
     1
102
RTVSPropertyOp28
 70
     1
102
RTVSPropertyOp29
 70
     1
102
RTVSPropertyOp30
 70
     1
102
RTVSPropertyOp31
 70
     1
102
RTVSPropertyOp32
 70
     1
102
RTVSPropertyOp33
 70
     1
102
RTVSPropertyOp34
 70
     1
102
RTVSPropertyOp35
 70
     1
102
RTVSPropertyOp36
 70
     1
102
RTVSPropertyOp37
 70
     1
102
RTVSPropertyOp38
 70
     1
102
RTVSPropertyOp39
 70
     1
102
RTVSPropertyOp40
 70
     1
102
RTVSPropertyOp41
 70
     1
102
RTVSPropertyOp42
 70
     1
102
RTVSPropertyOp43
 70
     1
102
RTVSPropertyOp44
 70
     1
102
RTVSPropertyOp45
 70
     1
102
RTVSPropertyOp46
 70
     1
102
RTVSPropertyOp47
 70
     1
102
RTVSPropertyOp48
 70
     1
102
RTVSPropertyOp49
 70
     1
102
RTVSPropertyOp50
 70
     1
102
RTVSPropertyOp51
 70
     0
102
RTVSPropertyOp52
 70
     0
102
RTVSPropertyOp53
 70
     1
102
RTVSPropertyOp54
 70
     1
102
RTVSPropertyOp55
 70
     1
102
RTVSPropertyOp56
 70
     1
102
RTVSPropertyOp57
 70
     1
102
RTVSPropertyOp58
 70
     1
102
RTVSPropertyOp59
 70
     1
102
RTVSPropertyOp60
 70
     1
102
RTVSPropertyOp61
 70
     1
102
RTVSPropertyOp62
 70
     1
  0
XRECORD
  5
EFD
102
{ACAD_REACTORS
330
EFC
102
}
330
EFC
100
AcDbXrecord
280
     1
102
RTVSPost2010Prop28
280
     0
102
RTVSPost2010PropOp28
 70
     1
102
RTVSPost2010Prop29
280
     1
102
RTVSPost2010PropOp29
 70
     1
102
RTVSPost2010Prop30
280
     1
102
RTVSPost2010PropOp30
 70
     1
102
RTVSPost2010Prop31
280
     0
102
RTVSPost2010PropOp31
 70
     1
102
RTVSPost2010Prop32
280
     0
102
RTVSPost2010PropOp32
 70
     1
102
RTVSPost2010Prop33
280
     0
102
RTVSPost2010PropOp33
 70
     1
102
RTVSPost2010Prop34
280
     0
102
RTVSPost2010PropOp34
 70
     1
102
RTVSPost2010Prop35
280
     0
102
RTVSPost2010PropOp35
 70
     1
102
RTVSPost2010Prop36
280
     0
102
RTVSPost2010PropOp36
 70
     1
102
RTVSPost2010Prop37
 90
       50
102
RTVSPost2010PropOp37
 70
     1
102
RTVSPost2010Prop38
140
0.0
102
RTVSPost2010PropOp38
 70
     1
102
RTVSPost2010Prop39
140
1.0
102
RTVSPost2010PropOp39
 70
     1
102
RTVSPost2010Prop40
 90
        0
102
RTVSPost2010PropOp40
 70
     1
102
RTVSPost2010Prop41ColorIndex
 90
       18
102
RTVSPost2010Prop41ColorRGB
 90
        0
102
RTVSPost2010PropOp41
 70
     1
102
RTVSPost2010Prop42
 90
       50
102
RTVSPost2010PropOp42
 70
     1
102
RTVSPost2010Prop43
 90
        3
102
RTVSPost2010PropOp43
 70
     1
102
RTVSPost2010Prop44ColorIndex
 90
        5
102
RTVSPost2010Prop44ColorRGB
 90
      255
102
RTVSPost2010PropOp44
 70
     1
102
RTVSPost2010Prop45
280
     0
102
RTVSPost2010PropOp45
 70
     1
102
RTVSPost2010Prop46
 90
       50
102
RTVSPost2010PropOp46
 70
     1
102
RTVSPost2010Prop47
 90
       50
102
RTVSPost2010PropOp47
 70
     1
102
RTVSPost2010Prop48
 90
       50
102
RTVSPost2010PropOp48
 70
     1
102
RTVSPost2010Prop49
280
     0
102
RTVSPost2010PropOp49
 70
     1
102
RTVSPost2010Prop50
 90
       50
102
RTVSPost2010PropOp50
 70
     1
102
RTVSPost2010Prop51ColorIndex
 90
      256
102
RTVSPost2010Prop51ColorRGB
 90
-16777216
102
RTVSPost2010PropOp51
 70
     0
102
RTVSPost2010Prop52
140
1.0
102
RTVSPost2010PropOp52
 70
     0
102
RTVSPost2010Prop53
 90
        2
102
RTVSPost2010PropOp53
 70
     1
102
RTVSPost2010Prop54
  1
strokes_ogs.tif
102
RTVSPost2010PropOp54
 70
     1
102
RTVSPost2010Prop55
280
     0
102
RTVSPost2010PropOp55
 70
     1
102
RTVSPost2010Prop56
140
1.0
102
RTVSPost2010PropOp56
 70
     1
102
RTVSPost2010Prop57
140
1.0
102
RTVSPost2010PropOp57
 70
     1
102
RTVSPropertyOp0
 70
     1
102
RTVSPropertyOp1
 70
     1
102
RTVSPropertyOp2
 70
     1
102
RTVSPropertyOp3
 70
     1
102
RTVSPropertyOp4
 70
     1
102
RTVSPropertyOp5
 70
     1
102
RTVSPropertyOp6
 70
     1
102
RTVSPropertyOp7
 70
     1
102
RTVSPropertyOp8
 70
     1
102
RTVSPropertyOp9
 70
     1
102
RTVSPropertyOp10
 70
     1
102
RTVSPropertyOp11
 70
     1
102
RTVSPropertyOp12
 70
     1
102
RTVSPropertyOp13
 70
     1
102
RTVSPropertyOp14
 70
     1
102
RTVSPropertyOp15
 70
     1
102
RTVSPropertyOp16
 70
     1
102
RTVSPropertyOp17
 70
     1
102
RTVSPropertyOp18
 70
     1
102
RTVSPropertyOp19
 70
     1
102
RTVSPropertyOp20
 70
     1
102
RTVSPropertyOp21
 70
     1
102
RTVSPropertyOp22
 70
     1
102
RTVSPropertyOp23
 70
     1
102
RTVSPropertyOp24
 70
     1
102
RTVSPropertyOp25
 70
     1
102
RTVSPropertyOp26
 70
     1
102
RTVSPropertyOp27
 70
     1
102
RTVSPropertyOp28
 70
     1
102
RTVSPropertyOp29
 70
     1
102
RTVSPropertyOp30
 70
     1
102
RTVSPropertyOp31
 70
     1
102
RTVSPropertyOp32
 70
     1
102
RTVSPropertyOp33
 70
     1
102
RTVSPropertyOp34
 70
     1
102
RTVSPropertyOp35
 70
     1
102
RTVSPropertyOp36
 70
     1
102
RTVSPropertyOp37
 70
     1
102
RTVSPropertyOp38
 70
     1
102
RTVSPropertyOp39
 70
     1
102
RTVSPropertyOp40
 70
     1
102
RTVSPropertyOp41
 70
     1
102
RTVSPropertyOp42
 70
     1
102
RTVSPropertyOp43
 70
     1
102
RTVSPropertyOp44
 70
     1
102
RTVSPropertyOp45
 70
     1
102
RTVSPropertyOp46
 70
     1
102
RTVSPropertyOp47
 70
     1
102
RTVSPropertyOp48
 70
     1
102
RTVSPropertyOp49
 70
     1
102
RTVSPropertyOp50
 70
     1
102
RTVSPropertyOp51
 70
     0
102
RTVSPropertyOp52
 70
     0
102
RTVSPropertyOp53
 70
     1
102
RTVSPropertyOp54
 70
     1
102
RTVSPropertyOp55
 70
     1
102
RTVSPropertyOp56
 70
     1
102
RTVSPropertyOp57
 70
     1
102
RTVSPropertyOp58
 70
     1
102
RTVSPropertyOp59
 70
     1
102
RTVSPropertyOp60
 70
     1
102
RTVSPropertyOp61
 70
     1
102
RTVSPropertyOp62
 70
     1
  0
XRECORD
  5
F0F
102
{ACAD_REACTORS
330
F0E
102
}
330
F0E
100
AcDbXrecord
280
     1
102
RTVSPost2010Prop28
280
     0
102
RTVSPost2010PropOp28
 70
     1
102
RTVSPost2010Prop29
280
     1
102
RTVSPost2010PropOp29
 70
     1
102
RTVSPost2010Prop30
280
     1
102
RTVSPost2010PropOp30
 70
     1
102
RTVSPost2010Prop31
280
     0
102
RTVSPost2010PropOp31
 70
     1
102
RTVSPost2010Prop32
280
     0
102
RTVSPost2010PropOp32
 70
     1
102
RTVSPost2010Prop33
280
     0
102
RTVSPost2010PropOp33
 70
     1
102
RTVSPost2010Prop34
280
     0
102
RTVSPost2010PropOp34
 70
     1
102
RTVSPost2010Prop35
280
     0
102
RTVSPost2010PropOp35
 70
     1
102
RTVSPost2010Prop36
280
     0
102
RTVSPost2010PropOp36
 70
     1
102
RTVSPost2010Prop37
 90
       50
102
RTVSPost2010PropOp37
 70
     1
102
RTVSPost2010Prop38
140
0.0
102
RTVSPost2010PropOp38
 70
     1
102
RTVSPost2010Prop39
140
1.0
102
RTVSPost2010PropOp39
 70
     1
102
RTVSPost2010Prop40
 90
        0
102
RTVSPost2010PropOp40
 70
     1
102
RTVSPost2010Prop41ColorIndex
 90
       18
102
RTVSPost2010Prop41ColorRGB
 90
        0
102
RTVSPost2010PropOp41
 70
     1
102
RTVSPost2010Prop42
 90
       50
102
RTVSPost2010PropOp42
 70
     1
102
RTVSPost2010Prop43
 90
        3
102
RTVSPost2010PropOp43
 70
     1
102
RTVSPost2010Prop44ColorIndex
 90
        5
102
RTVSPost2010Prop44ColorRGB
 90
      255
102
RTVSPost2010PropOp44
 70
     1
102
RTVSPost2010Prop45
280
     0
102
RTVSPost2010PropOp45
 70
     1
102
RTVSPost2010Prop46
 90
       50
102
RTVSPost2010PropOp46
 70
     1
102
RTVSPost2010Prop47
 90
       50
102
RTVSPost2010PropOp47
 70
     1
102
RTVSPost2010Prop48
 90
       50
102
RTVSPost2010PropOp48
 70
     1
102
RTVSPost2010Prop49
280
     0
102
RTVSPost2010PropOp49
 70
     1
102
RTVSPost2010Prop50
 90
       50
102
RTVSPost2010PropOp50
 70
     1
102
RTVSPost2010Prop51ColorIndex
 90
      256
102
RTVSPost2010Prop51ColorRGB
 90
-16777216
102
RTVSPost2010PropOp51
 70
     0
102
RTVSPost2010Prop52
140
1.0
102
RTVSPost2010PropOp52
 70
     0
102
RTVSPost2010Prop53
 90
        2
102
RTVSPost2010PropOp53
 70
     1
102
RTVSPost2010Prop54
  1
strokes_ogs.tif
102
RTVSPost2010PropOp54
 70
     1
102
RTVSPost2010Prop55
280
     0
102
RTVSPost2010PropOp55
 70
     1
102
RTVSPost2010Prop56
140
1.0
102
RTVSPost2010PropOp56
 70
     1
102
RTVSPost2010Prop57
140
1.0
102
RTVSPost2010PropOp57
 70
     1
102
RTVSPropertyOp0
 70
     0
102
RTVSPropertyOp1
 70
     0
102
RTVSPropertyOp2
 70
     0
102
RTVSPropertyOp3
 70
     0
102
RTVSPropertyOp4
 70
     0
102
RTVSPropertyOp5
 70
     0
102
RTVSPropertyOp6
 70
     0
102
RTVSPropertyOp7
 70
     0
102
RTVSPropertyOp8
 70
     0
102
RTVSPropertyOp9
 70
     0
102
RTVSPropertyOp10
 70
     0
102
RTVSPropertyOp11
 70
     0
102
RTVSPropertyOp12
 70
     0
102
RTVSPropertyOp13
 70
     0
102
RTVSPropertyOp14
 70
     2
102
RTVSPropertyOp15
 70
     0
102
RTVSPropertyOp16
 70
     0
102
RTVSPropertyOp17
 70
     0
102
RTVSPropertyOp18
 70
     0
102
RTVSPropertyOp19
 70
     0
102
RTVSPropertyOp20
 70
     0
102
RTVSPropertyOp21
 70
     0
102
RTVSPropertyOp22
 70
     0
102
RTVSPropertyOp23
 70
     0
102
RTVSPropertyOp24
 70
     0
102
RTVSPropertyOp25
 70
     0
102
RTVSPropertyOp26
 70
     0
102
RTVSPropertyOp27
 70
     0
102
RTVSPropertyOp28
 70
     1
102
RTVSPropertyOp29
 70
     1
102
RTVSPropertyOp30
 70
     1
102
RTVSPropertyOp31
 70
     1
102
RTVSPropertyOp32
 70
     1
102
RTVSPropertyOp33
 70
     1
102
RTVSPropertyOp34
 70
     1
102
RTVSPropertyOp35
 70
     1
102
RTVSPropertyOp36
 70
     1
102
RTVSPropertyOp37
 70
     1
102
RTVSPropertyOp38
 70
     1
102
RTVSPropertyOp39
 70
     1
102
RTVSPropertyOp40
 70
     1
102
RTVSPropertyOp41
 70
     1
102
RTVSPropertyOp42
 70
     1
102
RTVSPropertyOp43
 70
     1
102
RTVSPropertyOp44
 70
     1
102
RTVSPropertyOp45
 70
     1
102
RTVSPropertyOp46
 70
     1
102
RTVSPropertyOp47
 70
     1
102
RTVSPropertyOp48
 70
     1
102
RTVSPropertyOp49
 70
     1
102
RTVSPropertyOp50
 70
     1
102
RTVSPropertyOp51
 70
     0
102
RTVSPropertyOp52
 70
     0
102
RTVSPropertyOp53
 70
     1
102
RTVSPropertyOp54
 70
     1
102
RTVSPropertyOp55
 70
     1
102
RTVSPropertyOp56
 70
     1
102
RTVSPropertyOp57
 70
     1
102
RTVSPropertyOp58
 70
     1
102
RTVSPropertyOp59
 70
     1
102
RTVSPropertyOp60
 70
     1
102
RTVSPropertyOp61
 70
     1
102
RTVSPropertyOp62
 70
     1
  0
XRECORD
  5
F05
102
{ACAD_REACTORS
330
F04
102
}
330
F04
100
AcDbXrecord
280
     1
102
RTVSPost2010Prop28
280
     0
102
RTVSPost2010PropOp28
 70
     1
102
RTVSPost2010Prop29
280
     1
102
RTVSPost2010PropOp29
 70
     1
102
RTVSPost2010Prop30
280
     1
102
RTVSPost2010PropOp30
 70
     1
102
RTVSPost2010Prop31
280
     0
102
RTVSPost2010PropOp31
 70
     1
102
RTVSPost2010Prop32
280
     0
102
RTVSPost2010PropOp32
 70
     1
102
RTVSPost2010Prop33
280
     0
102
RTVSPost2010PropOp33
 70
     1
102
RTVSPost2010Prop34
280
     0
102
RTVSPost2010PropOp34
 70
     1
102
RTVSPost2010Prop35
280
     0
102
RTVSPost2010PropOp35
 70
     1
102
RTVSPost2010Prop36
280
     0
102
RTVSPost2010PropOp36
 70
     1
102
RTVSPost2010Prop37
 90
       50
102
RTVSPost2010PropOp37
 70
     1
102
RTVSPost2010Prop38
140
0.0
102
RTVSPost2010PropOp38
 70
     1
102
RTVSPost2010Prop39
140
1.0
102
RTVSPost2010PropOp39
 70
     1
102
RTVSPost2010Prop40
 90
        0
102
RTVSPost2010PropOp40
 70
     1
102
RTVSPost2010Prop41ColorIndex
 90
       18
102
RTVSPost2010Prop41ColorRGB
 90
        0
102
RTVSPost2010PropOp41
 70
     1
102
RTVSPost2010Prop42
 90
       50
102
RTVSPost2010PropOp42
 70
     1
102
RTVSPost2010Prop43
 90
        3
102
RTVSPost2010PropOp43
 70
     1
102
RTVSPost2010Prop44ColorIndex
 90
        5
102
RTVSPost2010Prop44ColorRGB
 90
      255
102
RTVSPost2010PropOp44
 70
     1
102
RTVSPost2010Prop45
280
     0
102
RTVSPost2010PropOp45
 70
     1
102
RTVSPost2010Prop46
 90
       50
102
RTVSPost2010PropOp46
 70
     1
102
RTVSPost2010Prop47
 90
       50
102
RTVSPost2010PropOp47
 70
     1
102
RTVSPost2010Prop48
 90
       50
102
RTVSPost2010PropOp48
 70
     1
102
RTVSPost2010Prop49
280
     0
102
RTVSPost2010PropOp49
 70
     1
102
RTVSPost2010Prop50
 90
       50
102
RTVSPost2010PropOp50
 70
     1
102
RTVSPost2010Prop51ColorIndex
 90
      256
102
RTVSPost2010Prop51ColorRGB
 90
-16777216
102
RTVSPost2010PropOp51
 70
     0
102
RTVSPost2010Prop52
140
1.0
102
RTVSPost2010PropOp52
 70
     0
102
RTVSPost2010Prop53
 90
        2
102
RTVSPost2010PropOp53
 70
     1
102
RTVSPost2010Prop54
  1
strokes_ogs.tif
102
RTVSPost2010PropOp54
 70
     1
102
RTVSPost2010Prop55
280
     0
102
RTVSPost2010PropOp55
 70
     1
102
RTVSPost2010Prop56
140
1.0
102
RTVSPost2010PropOp56
 70
     1
102
RTVSPost2010Prop57
140
1.0
102
RTVSPost2010PropOp57
 70
     1
102
RTVSPropertyOp0
 70
     1
102
RTVSPropertyOp1
 70
     1
102
RTVSPropertyOp2
 70
     1
102
RTVSPropertyOp3
 70
     1
102
RTVSPropertyOp4
 70
     1
102
RTVSPropertyOp5
 70
     1
102
RTVSPropertyOp6
 70
     1
102
RTVSPropertyOp7
 70
     1
102
RTVSPropertyOp8
 70
     1
102
RTVSPropertyOp9
 70
     1
102
RTVSPropertyOp10
 70
     1
102
RTVSPropertyOp11
 70
     1
102
RTVSPropertyOp12
 70
     1
102
RTVSPropertyOp13
 70
     1
102
RTVSPropertyOp14
 70
     1
102
RTVSPropertyOp15
 70
     1
102
RTVSPropertyOp16
 70
     1
102
RTVSPropertyOp17
 70
     1
102
RTVSPropertyOp18
 70
     1
102
RTVSPropertyOp19
 70
     1
102
RTVSPropertyOp20
 70
     1
102
RTVSPropertyOp21
 70
     1
102
RTVSPropertyOp22
 70
     1
102
RTVSPropertyOp23
 70
     1
102
RTVSPropertyOp24
 70
     1
102
RTVSPropertyOp25
 70
     1
102
RTVSPropertyOp26
 70
     1
102
RTVSPropertyOp27
 70
     1
102
RTVSPropertyOp28
 70
     1
102
RTVSPropertyOp29
 70
     1
102
RTVSPropertyOp30
 70
     1
102
RTVSPropertyOp31
 70
     1
102
RTVSPropertyOp32
 70
     1
102
RTVSPropertyOp33
 70
     1
102
RTVSPropertyOp34
 70
     1
102
RTVSPropertyOp35
 70
     1
102
RTVSPropertyOp36
 70
     1
102
RTVSPropertyOp37
 70
     1
102
RTVSPropertyOp38
 70
     1
102
RTVSPropertyOp39
 70
     1
102
RTVSPropertyOp40
 70
     1
102
RTVSPropertyOp41
 70
     1
102
RTVSPropertyOp42
 70
     1
102
RTVSPropertyOp43
 70
     1
102
RTVSPropertyOp44
 70
     1
102
RTVSPropertyOp45
 70
     1
102
RTVSPropertyOp46
 70
     1
102
RTVSPropertyOp47
 70
     1
102
RTVSPropertyOp48
 70
     1
102
RTVSPropertyOp49
 70
     1
102
RTVSPropertyOp50
 70
     1
102
RTVSPropertyOp51
 70
     0
102
RTVSPropertyOp52
 70
     0
102
RTVSPropertyOp53
 70
     1
102
RTVSPropertyOp54
 70
     1
102
RTVSPropertyOp55
 70
     1
102
RTVSPropertyOp56
 70
     1
102
RTVSPropertyOp57
 70
     1
102
RTVSPropertyOp58
 70
     1
102
RTVSPropertyOp59
 70
     1
102
RTVSPropertyOp60
 70
     1
102
RTVSPropertyOp61
 70
     1
102
RTVSPropertyOp62
 70
     1
  0
XRECORD
  5
EE9
102
{ACAD_REACTORS
330
EE8
102
}
330
EE8
100
AcDbXrecord
280
     1
102
RTVSPost2010Prop28
280
     0
102
RTVSPost2010PropOp28
 70
     1
102
RTVSPost2010Prop29
280
     1
102
RTVSPost2010PropOp29
 70
     1
102
RTVSPost2010Prop30
280
     1
102
RTVSPost2010PropOp30
 70
     1
102
RTVSPost2010Prop31
280
     0
102
RTVSPost2010PropOp31
 70
     1
102
RTVSPost2010Prop32
280
     0
102
RTVSPost2010PropOp32
 70
     1
102
RTVSPost2010Prop33
280
     0
102
RTVSPost2010PropOp33
 70
     1
102
RTVSPost2010Prop34
280
     0
102
RTVSPost2010PropOp34
 70
     1
102
RTVSPost2010Prop35
280
     0
102
RTVSPost2010PropOp35
 70
     1
102
RTVSPost2010Prop36
280
     0
102
RTVSPost2010PropOp36
 70
     1
102
RTVSPost2010Prop37
 90
       50
102
RTVSPost2010PropOp37
 70
     1
102
RTVSPost2010Prop38
140
0.0
102
RTVSPost2010PropOp38
 70
     1
102
RTVSPost2010Prop39
140
1.0
102
RTVSPost2010PropOp39
 70
     1
102
RTVSPost2010Prop40
 90
        0
102
RTVSPost2010PropOp40
 70
     1
102
RTVSPost2010Prop41ColorIndex
 90
       18
102
RTVSPost2010Prop41ColorRGB
 90
        0
102
RTVSPost2010PropOp41
 70
     1
102
RTVSPost2010Prop42
 90
       50
102
RTVSPost2010PropOp42
 70
     1
102
RTVSPost2010Prop43
 90
        3
102
RTVSPost2010PropOp43
 70
     1
102
RTVSPost2010Prop44ColorIndex
 90
        5
102
RTVSPost2010Prop44ColorRGB
 90
      255
102
RTVSPost2010PropOp44
 70
     1
102
RTVSPost2010Prop45
280
     0
102
RTVSPost2010PropOp45
 70
     1
102
RTVSPost2010Prop46
 90
       50
102
RTVSPost2010PropOp46
 70
     1
102
RTVSPost2010Prop47
 90
       50
102
RTVSPost2010PropOp47
 70
     1
102
RTVSPost2010Prop48
 90
       50
102
RTVSPost2010PropOp48
 70
     1
102
RTVSPost2010Prop49
280
     0
102
RTVSPost2010PropOp49
 70
     1
102
RTVSPost2010Prop50
 90
       50
102
RTVSPost2010PropOp50
 70
     1
102
RTVSPost2010Prop51ColorIndex
 90
      256
102
RTVSPost2010Prop51ColorRGB
 90
-16777216
102
RTVSPost2010PropOp51
 70
     0
102
RTVSPost2010Prop52
140
1.0
102
RTVSPost2010PropOp52
 70
     0
102
RTVSPost2010Prop53
 90
        2
102
RTVSPost2010PropOp53
 70
     1
102
RTVSPost2010Prop54
  1
strokes_ogs.tif
102
RTVSPost2010PropOp54
 70
     1
102
RTVSPost2010Prop55
280
     0
102
RTVSPost2010PropOp55
 70
     1
102
RTVSPost2010Prop56
140
1.0
102
RTVSPost2010PropOp56
 70
     1
102
RTVSPost2010Prop57
140
1.0
102
RTVSPost2010PropOp57
 70
     1
102
RTVSPropertyOp0
 70
     1
102
RTVSPropertyOp1
 70
     1
102
RTVSPropertyOp2
 70
     1
102
RTVSPropertyOp3
 70
     1
102
RTVSPropertyOp4
 70
     1
102
RTVSPropertyOp5
 70
     1
102
RTVSPropertyOp6
 70
     1
102
RTVSPropertyOp7
 70
     1
102
RTVSPropertyOp8
 70
     1
102
RTVSPropertyOp9
 70
     1
102
RTVSPropertyOp10
 70
     1
102
RTVSPropertyOp11
 70
     1
102
RTVSPropertyOp12
 70
     1
102
RTVSPropertyOp13
 70
     1
102
RTVSPropertyOp14
 70
     1
102
RTVSPropertyOp15
 70
     1
102
RTVSPropertyOp16
 70
     1
102
RTVSPropertyOp17
 70
     1
102
RTVSPropertyOp18
 70
     1
102
RTVSPropertyOp19
 70
     1
102
RTVSPropertyOp20
 70
     1
102
RTVSPropertyOp21
 70
     1
102
RTVSPropertyOp22
 70
     1
102
RTVSPropertyOp23
 70
     1
102
RTVSPropertyOp24
 70
     1
102
RTVSPropertyOp25
 70
     1
102
RTVSPropertyOp26
 70
     1
102
RTVSPropertyOp27
 70
     1
102
RTVSPropertyOp28
 70
     1
102
RTVSPropertyOp29
 70
     1
102
RTVSPropertyOp30
 70
     1
102
RTVSPropertyOp31
 70
     1
102
RTVSPropertyOp32
 70
     1
102
RTVSPropertyOp33
 70
     1
102
RTVSPropertyOp34
 70
     1
102
RTVSPropertyOp35
 70
     1
102
RTVSPropertyOp36
 70
     1
102
RTVSPropertyOp37
 70
     1
102
RTVSPropertyOp38
 70
     1
102
RTVSPropertyOp39
 70
     1
102
RTVSPropertyOp40
 70
     1
102
RTVSPropertyOp41
 70
     1
102
RTVSPropertyOp42
 70
     1
102
RTVSPropertyOp43
 70
     1
102
RTVSPropertyOp44
 70
     1
102
RTVSPropertyOp45
 70
     1
102
RTVSPropertyOp46
 70
     1
102
RTVSPropertyOp47
 70
     1
102
RTVSPropertyOp48
 70
     1
102
RTVSPropertyOp49
 70
     1
102
RTVSPropertyOp50
 70
     1
102
RTVSPropertyOp51
 70
     0
102
RTVSPropertyOp52
 70
     0
102
RTVSPropertyOp53
 70
     1
102
RTVSPropertyOp54
 70
     1
102
RTVSPropertyOp55
 70
     1
102
RTVSPropertyOp56
 70
     1
102
RTVSPropertyOp57
 70
     1
102
RTVSPropertyOp58
 70
     1
102
RTVSPropertyOp59
 70
     1
102
RTVSPropertyOp60
 70
     1
102
RTVSPropertyOp61
 70
     1
102
RTVSPropertyOp62
 70
     1
  0
XRECORD
  5
EEB
102
{ACAD_REACTORS
330
EEA
102
}
330
EEA
100
AcDbXrecord
280
     1
102
RTVSPost2010Prop28
280
     0
102
RTVSPost2010PropOp28
 70
     1
102
RTVSPost2010Prop29
280
     1
102
RTVSPost2010PropOp29
 70
     1
102
RTVSPost2010Prop30
280
     1
102
RTVSPost2010PropOp30
 70
     1
102
RTVSPost2010Prop31
280
     0
102
RTVSPost2010PropOp31
 70
     1
102
RTVSPost2010Prop32
280
     0
102
RTVSPost2010PropOp32
 70
     1
102
RTVSPost2010Prop33
280
     0
102
RTVSPost2010PropOp33
 70
     1
102
RTVSPost2010Prop34
280
     0
102
RTVSPost2010PropOp34
 70
     1
102
RTVSPost2010Prop35
280
     0
102
RTVSPost2010PropOp35
 70
     1
102
RTVSPost2010Prop36
280
     0
102
RTVSPost2010PropOp36
 70
     1
102
RTVSPost2010Prop37
 90
       50
102
RTVSPost2010PropOp37
 70
     1
102
RTVSPost2010Prop38
140
0.0
102
RTVSPost2010PropOp38
 70
     1
102
RTVSPost2010Prop39
140
1.0
102
RTVSPost2010PropOp39
 70
     1
102
RTVSPost2010Prop40
 90
        0
102
RTVSPost2010PropOp40
 70
     1
102
RTVSPost2010Prop41ColorIndex
 90
       18
102
RTVSPost2010Prop41ColorRGB
 90
        0
102
RTVSPost2010PropOp41
 70
     1
102
RTVSPost2010Prop42
 90
       50
102
RTVSPost2010PropOp42
 70
     1
102
RTVSPost2010Prop43
 90
        3
102
RTVSPost2010PropOp43
 70
     1
102
RTVSPost2010Prop44ColorIndex
 90
        5
102
RTVSPost2010Prop44ColorRGB
 90
      255
102
RTVSPost2010PropOp44
 70
     1
102
RTVSPost2010Prop45
280
     0
102
RTVSPost2010PropOp45
 70
     1
102
RTVSPost2010Prop46
 90
       50
102
RTVSPost2010PropOp46
 70
     1
102
RTVSPost2010Prop47
 90
       50
102
RTVSPost2010PropOp47
 70
     1
102
RTVSPost2010Prop48
 90
       50
102
RTVSPost2010PropOp48
 70
     1
102
RTVSPost2010Prop49
280
     0
102
RTVSPost2010PropOp49
 70
     1
102
RTVSPost2010Prop50
 90
       50
102
RTVSPost2010PropOp50
 70
     1
102
RTVSPost2010Prop51ColorIndex
 90
      256
102
RTVSPost2010Prop51ColorRGB
 90
-16777216
102
RTVSPost2010PropOp51
 70
     0
102
RTVSPost2010Prop52
140
1.0
102
RTVSPost2010PropOp52
 70
     0
102
RTVSPost2010Prop53
 90
        2
102
RTVSPost2010PropOp53
 70
     1
102
RTVSPost2010Prop54
  1
strokes_ogs.tif
102
RTVSPost2010PropOp54
 70
     1
102
RTVSPost2010Prop55
280
     0
102
RTVSPost2010PropOp55
 70
     1
102
RTVSPost2010Prop56
140
1.0
102
RTVSPost2010PropOp56
 70
     1
102
RTVSPost2010Prop57
140
1.0
102
RTVSPost2010PropOp57
 70
     1
102
RTVSPropertyOp0
 70
     1
102
RTVSPropertyOp1
 70
     1
102
RTVSPropertyOp2
 70
     1
102
RTVSPropertyOp3
 70
     1
102
RTVSPropertyOp4
 70
     1
102
RTVSPropertyOp5
 70
     1
102
RTVSPropertyOp6
 70
     1
102
RTVSPropertyOp7
 70
     1
102
RTVSPropertyOp8
 70
     1
102
RTVSPropertyOp9
 70
     1
102
RTVSPropertyOp10
 70
     1
102
RTVSPropertyOp11
 70
     1
102
RTVSPropertyOp12
 70
     1
102
RTVSPropertyOp13
 70
     1
102
RTVSPropertyOp14
 70
     1
102
RTVSPropertyOp15
 70
     1
102
RTVSPropertyOp16
 70
     1
102
RTVSPropertyOp17
 70
     1
102
RTVSPropertyOp18
 70
     1
102
RTVSPropertyOp19
 70
     1
102
RTVSPropertyOp20
 70
     1
102
RTVSPropertyOp21
 70
     1
102
RTVSPropertyOp22
 70
     1
102
RTVSPropertyOp23
 70
     1
102
RTVSPropertyOp24
 70
     1
102
RTVSPropertyOp25
 70
     1
102
RTVSPropertyOp26
 70
     1
102
RTVSPropertyOp27
 70
     1
102
RTVSPropertyOp28
 70
     1
102
RTVSPropertyOp29
 70
     1
102
RTVSPropertyOp30
 70
     1
102
RTVSPropertyOp31
 70
     1
102
RTVSPropertyOp32
 70
     1
102
RTVSPropertyOp33
 70
     1
102
RTVSPropertyOp34
 70
     1
102
RTVSPropertyOp35
 70
     1
102
RTVSPropertyOp36
 70
     1
102
RTVSPropertyOp37
 70
     1
102
RTVSPropertyOp38
 70
     1
102
RTVSPropertyOp39
 70
     1
102
RTVSPropertyOp40
 70
     1
102
RTVSPropertyOp41
 70
     1
102
RTVSPropertyOp42
 70
     1
102
RTVSPropertyOp43
 70
     1
102
RTVSPropertyOp44
 70
     1
102
RTVSPropertyOp45
 70
     1
102
RTVSPropertyOp46
 70
     1
102
RTVSPropertyOp47
 70
     1
102
RTVSPropertyOp48
 70
     1
102
RTVSPropertyOp49
 70
     1
102
RTVSPropertyOp50
 70
     1
102
RTVSPropertyOp51
 70
     0
102
RTVSPropertyOp52
 70
     0
102
RTVSPropertyOp53
 70
     1
102
RTVSPropertyOp54
 70
     1
102
RTVSPropertyOp55
 70
     1
102
RTVSPropertyOp56
 70
     1
102
RTVSPropertyOp57
 70
     1
102
RTVSPropertyOp58
 70
     1
102
RTVSPropertyOp59
 70
     1
102
RTVSPropertyOp60
 70
     1
102
RTVSPropertyOp61
 70
     1
102
RTVSPropertyOp62
 70
     1
  0
XRECORD
  5
EED
102
{ACAD_REACTORS
330
EEC
102
}
330
EEC
100
AcDbXrecord
280
     1
102
RTVSPost2010Prop28
280
     0
102
RTVSPost2010PropOp28
 70
     1
102
RTVSPost2010Prop29
280
     1
102
RTVSPost2010PropOp29
 70
     1
102
RTVSPost2010Prop30
280
     1
102
RTVSPost2010PropOp30
 70
     1
102
RTVSPost2010Prop31
280
     0
102
RTVSPost2010PropOp31
 70
     1
102
RTVSPost2010Prop32
280
     0
102
RTVSPost2010PropOp32
 70
     1
102
RTVSPost2010Prop33
280
     0
102
RTVSPost2010PropOp33
 70
     1
102
RTVSPost2010Prop34
280
     0
102
RTVSPost2010PropOp34
 70
     1
102
RTVSPost2010Prop35
280
     0
102
RTVSPost2010PropOp35
 70
     1
102
RTVSPost2010Prop36
280
     0
102
RTVSPost2010PropOp36
 70
     1
102
RTVSPost2010Prop37
 90
       50
102
RTVSPost2010PropOp37
 70
     1
102
RTVSPost2010Prop38
140
0.0
102
RTVSPost2010PropOp38
 70
     1
102
RTVSPost2010Prop39
140
1.0
102
RTVSPost2010PropOp39
 70
     1
102
RTVSPost2010Prop40
 90
        0
102
RTVSPost2010PropOp40
 70
     1
102
RTVSPost2010Prop41ColorIndex
 90
       18
102
RTVSPost2010Prop41ColorRGB
 90
        0
102
RTVSPost2010PropOp41
 70
     1
102
RTVSPost2010Prop42
 90
       50
102
RTVSPost2010PropOp42
 70
     1
102
RTVSPost2010Prop43
 90
        3
102
RTVSPost2010PropOp43
 70
     1
102
RTVSPost2010Prop44ColorIndex
 90
        5
102
RTVSPost2010Prop44ColorRGB
 90
      255
102
RTVSPost2010PropOp44
 70
     1
102
RTVSPost2010Prop45
280
     0
102
RTVSPost2010PropOp45
 70
     1
102
RTVSPost2010Prop46
 90
       50
102
RTVSPost2010PropOp46
 70
     1
102
RTVSPost2010Prop47
 90
       50
102
RTVSPost2010PropOp47
 70
     1
102
RTVSPost2010Prop48
 90
       50
102
RTVSPost2010PropOp48
 70
     1
102
RTVSPost2010Prop49
280
     0
102
RTVSPost2010PropOp49
 70
     1
102
RTVSPost2010Prop50
 90
       50
102
RTVSPost2010PropOp50
 70
     1
102
RTVSPost2010Prop51ColorIndex
 90
      256
102
RTVSPost2010Prop51ColorRGB
 90
-16777216
102
RTVSPost2010PropOp51
 70
     0
102
RTVSPost2010Prop52
140
1.0
102
RTVSPost2010PropOp52
 70
     0
102
RTVSPost2010Prop53
 90
        2
102
RTVSPost2010PropOp53
 70
     1
102
RTVSPost2010Prop54
  1
strokes_ogs.tif
102
RTVSPost2010PropOp54
 70
     1
102
RTVSPost2010Prop55
280
     0
102
RTVSPost2010PropOp55
 70
     1
102
RTVSPost2010Prop56
140
1.0
102
RTVSPost2010PropOp56
 70
     1
102
RTVSPost2010Prop57
140
1.0
102
RTVSPost2010PropOp57
 70
     1
102
RTVSPropertyOp0
 70
     1
102
RTVSPropertyOp1
 70
     1
102
RTVSPropertyOp2
 70
     1
102
RTVSPropertyOp3
 70
     1
102
RTVSPropertyOp4
 70
     1
102
RTVSPropertyOp5
 70
     1
102
RTVSPropertyOp6
 70
     1
102
RTVSPropertyOp7
 70
     1
102
RTVSPropertyOp8
 70
     1
102
RTVSPropertyOp9
 70
     1
102
RTVSPropertyOp10
 70
     1
102
RTVSPropertyOp11
 70
     1
102
RTVSPropertyOp12
 70
     1
102
RTVSPropertyOp13
 70
     1
102
RTVSPropertyOp14
 70
     1
102
RTVSPropertyOp15
 70
     1
102
RTVSPropertyOp16
 70
     1
102
RTVSPropertyOp17
 70
     1
102
RTVSPropertyOp18
 70
     1
102
RTVSPropertyOp19
 70
     1
102
RTVSPropertyOp20
 70
     1
102
RTVSPropertyOp21
 70
     1
102
RTVSPropertyOp22
 70
     1
102
RTVSPropertyOp23
 70
     1
102
RTVSPropertyOp24
 70
     1
102
RTVSPropertyOp25
 70
     1
102
RTVSPropertyOp26
 70
     1
102
RTVSPropertyOp27
 70
     1
102
RTVSPropertyOp28
 70
     1
102
RTVSPropertyOp29
 70
     1
102
RTVSPropertyOp30
 70
     1
102
RTVSPropertyOp31
 70
     1
102
RTVSPropertyOp32
 70
     1
102
RTVSPropertyOp33
 70
     1
102
RTVSPropertyOp34
 70
     1
102
RTVSPropertyOp35
 70
     1
102
RTVSPropertyOp36
 70
     1
102
RTVSPropertyOp37
 70
     1
102
RTVSPropertyOp38
 70
     1
102
RTVSPropertyOp39
 70
     1
102
RTVSPropertyOp40
 70
     1
102
RTVSPropertyOp41
 70
     1
102
RTVSPropertyOp42
 70
     1
102
RTVSPropertyOp43
 70
     1
102
RTVSPropertyOp44
 70
     1
102
RTVSPropertyOp45
 70
     1
102
RTVSPropertyOp46
 70
     1
102
RTVSPropertyOp47
 70
     1
102
RTVSPropertyOp48
 70
     1
102
RTVSPropertyOp49
 70
     1
102
RTVSPropertyOp50
 70
     1
102
RTVSPropertyOp51
 70
     0
102
RTVSPropertyOp52
 70
     0
102
RTVSPropertyOp53
 70
     1
102
RTVSPropertyOp54
 70
     1
102
RTVSPropertyOp55
 70
     1
102
RTVSPropertyOp56
 70
     1
102
RTVSPropertyOp57
 70
     1
102
RTVSPropertyOp58
 70
     1
102
RTVSPropertyOp59
 70
     1
102
RTVSPropertyOp60
 70
     1
102
RTVSPropertyOp61
 70
     1
102
RTVSPropertyOp62
 70
     1
  0
XRECORD
  5
EEF
102
{ACAD_REACTORS
330
EEE
102
}
330
EEE
100
AcDbXrecord
280
     1
102
RTVSPost2010Prop28
280
     0
102
RTVSPost2010PropOp28
 70
     1
102
RTVSPost2010Prop29
280
     1
102
RTVSPost2010PropOp29
 70
     1
102
RTVSPost2010Prop30
280
     1
102
RTVSPost2010PropOp30
 70
     1
102
RTVSPost2010Prop31
280
     0
102
RTVSPost2010PropOp31
 70
     1
102
RTVSPost2010Prop32
280
     0
102
RTVSPost2010PropOp32
 70
     1
102
RTVSPost2010Prop33
280
     0
102
RTVSPost2010PropOp33
 70
     1
102
RTVSPost2010Prop34
280
     0
102
RTVSPost2010PropOp34
 70
     1
102
RTVSPost2010Prop35
280
     0
102
RTVSPost2010PropOp35
 70
     1
102
RTVSPost2010Prop36
280
     0
102
RTVSPost2010PropOp36
 70
     1
102
RTVSPost2010Prop37
 90
       50
102
RTVSPost2010PropOp37
 70
     1
102
RTVSPost2010Prop38
140
0.0
102
RTVSPost2010PropOp38
 70
     1
102
RTVSPost2010Prop39
140
1.0
102
RTVSPost2010PropOp39
 70
     1
102
RTVSPost2010Prop40
 90
        0
102
RTVSPost2010PropOp40
 70
     1
102
RTVSPost2010Prop41ColorIndex
 90
       18
102
RTVSPost2010Prop41ColorRGB
 90
        0
102
RTVSPost2010PropOp41
 70
     1
102
RTVSPost2010Prop42
 90
       50
102
RTVSPost2010PropOp42
 70
     1
102
RTVSPost2010Prop43
 90
        3
102
RTVSPost2010PropOp43
 70
     1
102
RTVSPost2010Prop44ColorIndex
 90
        5
102
RTVSPost2010Prop44ColorRGB
 90
      255
102
RTVSPost2010PropOp44
 70
     1
102
RTVSPost2010Prop45
280
     0
102
RTVSPost2010PropOp45
 70
     1
102
RTVSPost2010Prop46
 90
       50
102
RTVSPost2010PropOp46
 70
     1
102
RTVSPost2010Prop47
 90
       50
102
RTVSPost2010PropOp47
 70
     1
102
RTVSPost2010Prop48
 90
       50
102
RTVSPost2010PropOp48
 70
     1
102
RTVSPost2010Prop49
280
     0
102
RTVSPost2010PropOp49
 70
     1
102
RTVSPost2010Prop50
 90
       50
102
RTVSPost2010PropOp50
 70
     1
102
RTVSPost2010Prop51ColorIndex
 90
      256
102
RTVSPost2010Prop51ColorRGB
 90
-16777216
102
RTVSPost2010PropOp51
 70
     0
102
RTVSPost2010Prop52
140
1.0
102
RTVSPost2010PropOp52
 70
     0
102
RTVSPost2010Prop53
 90
        2
102
RTVSPost2010PropOp53
 70
     1
102
RTVSPost2010Prop54
  1
strokes_ogs.tif
102
RTVSPost2010PropOp54
 70
     1
102
RTVSPost2010Prop55
280
     0
102
RTVSPost2010PropOp55
 70
     1
102
RTVSPost2010Prop56
140
1.0
102
RTVSPost2010PropOp56
 70
     1
102
RTVSPost2010Prop57
140
1.0
102
RTVSPost2010PropOp57
 70
     1
102
RTVSPropertyOp0
 70
     1
102
RTVSPropertyOp1
 70
     1
102
RTVSPropertyOp2
 70
     1
102
RTVSPropertyOp3
 70
     1
102
RTVSPropertyOp4
 70
     1
102
RTVSPropertyOp5
 70
     1
102
RTVSPropertyOp6
 70
     1
102
RTVSPropertyOp7
 70
     1
102
RTVSPropertyOp8
 70
     1
102
RTVSPropertyOp9
 70
     1
102
RTVSPropertyOp10
 70
     1
102
RTVSPropertyOp11
 70
     1
102
RTVSPropertyOp12
 70
     1
102
RTVSPropertyOp13
 70
     1
102
RTVSPropertyOp14
 70
     1
102
RTVSPropertyOp15
 70
     1
102
RTVSPropertyOp16
 70
     1
102
RTVSPropertyOp17
 70
     1
102
RTVSPropertyOp18
 70
     1
102
RTVSPropertyOp19
 70
     1
102
RTVSPropertyOp20
 70
     1
102
RTVSPropertyOp21
 70
     1
102
RTVSPropertyOp22
 70
     1
102
RTVSPropertyOp23
 70
     1
102
RTVSPropertyOp24
 70
     1
102
RTVSPropertyOp25
 70
     1
102
RTVSPropertyOp26
 70
     1
102
RTVSPropertyOp27
 70
     1
102
RTVSPropertyOp28
 70
     1
102
RTVSPropertyOp29
 70
     1
102
RTVSPropertyOp30
 70
     1
102
RTVSPropertyOp31
 70
     1
102
RTVSPropertyOp32
 70
     1
102
RTVSPropertyOp33
 70
     1
102
RTVSPropertyOp34
 70
     1
102
RTVSPropertyOp35
 70
     1
102
RTVSPropertyOp36
 70
     1
102
RTVSPropertyOp37
 70
     1
102
RTVSPropertyOp38
 70
     1
102
RTVSPropertyOp39
 70
     1
102
RTVSPropertyOp40
 70
     1
102
RTVSPropertyOp41
 70
     1
102
RTVSPropertyOp42
 70
     1
102
RTVSPropertyOp43
 70
     1
102
RTVSPropertyOp44
 70
     1
102
RTVSPropertyOp45
 70
     1
102
RTVSPropertyOp46
 70
     1
102
RTVSPropertyOp47
 70
     1
102
RTVSPropertyOp48
 70
     1
102
RTVSPropertyOp49
 70
     1
102
RTVSPropertyOp50
 70
     1
102
RTVSPropertyOp51
 70
     0
102
RTVSPropertyOp52
 70
     0
102
RTVSPropertyOp53
 70
     1
102
RTVSPropertyOp54
 70
     1
102
RTVSPropertyOp55
 70
     1
102
RTVSPropertyOp56
 70
     1
102
RTVSPropertyOp57
 70
     1
102
RTVSPropertyOp58
 70
     1
102
RTVSPropertyOp59
 70
     1
102
RTVSPropertyOp60
 70
     1
102
RTVSPropertyOp61
 70
     1
102
RTVSPropertyOp62
 70
     1
  0
XRECORD
  5
EF7
102
{ACAD_REACTORS
330
EF6
102
}
330
EF6
100
AcDbXrecord
280
     1
102
RTVSPost2010Prop28
280
     0
102
RTVSPost2010PropOp28
 70
     1
102
RTVSPost2010Prop29
280
     1
102
RTVSPost2010PropOp29
 70
     1
102
RTVSPost2010Prop30
280
     1
102
RTVSPost2010PropOp30
 70
     1
102
RTVSPost2010Prop31
280
     0
102
RTVSPost2010PropOp31
 70
     1
102
RTVSPost2010Prop32
280
     0
102
RTVSPost2010PropOp32
 70
     1
102
RTVSPost2010Prop33
280
     0
102
RTVSPost2010PropOp33
 70
     1
102
RTVSPost2010Prop34
280
     0
102
RTVSPost2010PropOp34
 70
     1
102
RTVSPost2010Prop35
280
     0
102
RTVSPost2010PropOp35
 70
     1
102
RTVSPost2010Prop36
280
     0
102
RTVSPost2010PropOp36
 70
     1
102
RTVSPost2010Prop37
 90
       50
102
RTVSPost2010PropOp37
 70
     1
102
RTVSPost2010Prop38
140
0.0
102
RTVSPost2010PropOp38
 70
     1
102
RTVSPost2010Prop39
140
1.0
102
RTVSPost2010PropOp39
 70
     1
102
RTVSPost2010Prop40
 90
        0
102
RTVSPost2010PropOp40
 70
     1
102
RTVSPost2010Prop41ColorIndex
 90
       18
102
RTVSPost2010Prop41ColorRGB
 90
        0
102
RTVSPost2010PropOp41
 70
     1
102
RTVSPost2010Prop42
 90
       50
102
RTVSPost2010PropOp42
 70
     1
102
RTVSPost2010Prop43
 90
        3
102
RTVSPost2010PropOp43
 70
     1
102
RTVSPost2010Prop44ColorIndex
 90
        5
102
RTVSPost2010Prop44ColorRGB
 90
      255
102
RTVSPost2010PropOp44
 70
     1
102
RTVSPost2010Prop45
280
     0
102
RTVSPost2010PropOp45
 70
     1
102
RTVSPost2010Prop46
 90
       50
102
RTVSPost2010PropOp46
 70
     1
102
RTVSPost2010Prop47
 90
       50
102
RTVSPost2010PropOp47
 70
     1
102
RTVSPost2010Prop48
 90
       50
102
RTVSPost2010PropOp48
 70
     1
102
RTVSPost2010Prop49
280
     0
102
RTVSPost2010PropOp49
 70
     1
102
RTVSPost2010Prop50
 90
       50
102
RTVSPost2010PropOp50
 70
     1
102
RTVSPost2010Prop51ColorIndex
 90
      256
102
RTVSPost2010Prop51ColorRGB
 90
-16777216
102
RTVSPost2010PropOp51
 70
     0
102
RTVSPost2010Prop52
140
1.0
102
RTVSPost2010PropOp52
 70
     0
102
RTVSPost2010Prop53
 90
        2
102
RTVSPost2010PropOp53
 70
     1
102
RTVSPost2010Prop54
  1
strokes_ogs.tif
102
RTVSPost2010PropOp54
 70
     1
102
RTVSPost2010Prop55
280
     0
102
RTVSPost2010PropOp55
 70
     1
102
RTVSPost2010Prop56
140
1.0
102
RTVSPost2010PropOp56
 70
     1
102
RTVSPost2010Prop57
140
1.0
102
RTVSPost2010PropOp57
 70
     1
102
RTVSPropertyOp0
 70
     1
102
RTVSPropertyOp1
 70
     1
102
RTVSPropertyOp2
 70
     1
102
RTVSPropertyOp3
 70
     1
102
RTVSPropertyOp4
 70
     1
102
RTVSPropertyOp5
 70
     1
102
RTVSPropertyOp6
 70
     1
102
RTVSPropertyOp7
 70
     1
102
RTVSPropertyOp8
 70
     1
102
RTVSPropertyOp9
 70
     1
102
RTVSPropertyOp10
 70
     1
102
RTVSPropertyOp11
 70
     1
102
RTVSPropertyOp12
 70
     1
102
RTVSPropertyOp13
 70
     1
102
RTVSPropertyOp14
 70
     1
102
RTVSPropertyOp15
 70
     1
102
RTVSPropertyOp16
 70
     1
102
RTVSPropertyOp17
 70
     1
102
RTVSPropertyOp18
 70
     1
102
RTVSPropertyOp19
 70
     1
102
RTVSPropertyOp20
 70
     1
102
RTVSPropertyOp21
 70
     1
102
RTVSPropertyOp22
 70
     1
102
RTVSPropertyOp23
 70
     1
102
RTVSPropertyOp24
 70
     1
102
RTVSPropertyOp25
 70
     1
102
RTVSPropertyOp26
 70
     1
102
RTVSPropertyOp27
 70
     1
102
RTVSPropertyOp28
 70
     1
102
RTVSPropertyOp29
 70
     1
102
RTVSPropertyOp30
 70
     1
102
RTVSPropertyOp31
 70
     1
102
RTVSPropertyOp32
 70
     1
102
RTVSPropertyOp33
 70
     1
102
RTVSPropertyOp34
 70
     1
102
RTVSPropertyOp35
 70
     1
102
RTVSPropertyOp36
 70
     1
102
RTVSPropertyOp37
 70
     1
102
RTVSPropertyOp38
 70
     1
102
RTVSPropertyOp39
 70
     1
102
RTVSPropertyOp40
 70
     1
102
RTVSPropertyOp41
 70
     1
102
RTVSPropertyOp42
 70
     1
102
RTVSPropertyOp43
 70
     1
102
RTVSPropertyOp44
 70
     1
102
RTVSPropertyOp45
 70
     1
102
RTVSPropertyOp46
 70
     1
102
RTVSPropertyOp47
 70
     1
102
RTVSPropertyOp48
 70
     1
102
RTVSPropertyOp49
 70
     1
102
RTVSPropertyOp50
 70
     1
102
RTVSPropertyOp51
 70
     0
102
RTVSPropertyOp52
 70
     0
102
RTVSPropertyOp53
 70
     1
102
RTVSPropertyOp54
 70
     1
102
RTVSPropertyOp55
 70
     1
102
RTVSPropertyOp56
 70
     1
102
RTVSPropertyOp57
 70
     1
102
RTVSPropertyOp58
 70
     1
102
RTVSPropertyOp59
 70
     1
102
RTVSPropertyOp60
 70
     1
102
RTVSPropertyOp61
 70
     1
102
RTVSPropertyOp62
 70
     1
  0
XRECORD
  5
F0B
102
{ACAD_REACTORS
330
F0A
102
}
330
F0A
100
AcDbXrecord
280
     1
102
RTVSPost2010Prop28
280
     0
102
RTVSPost2010PropOp28
 70
     1
102
RTVSPost2010Prop29
280
     1
102
RTVSPost2010PropOp29
 70
     1
102
RTVSPost2010Prop30
280
     1
102
RTVSPost2010PropOp30
 70
     1
102
RTVSPost2010Prop31
280
     0
102
RTVSPost2010PropOp31
 70
     1
102
RTVSPost2010Prop32
280
     0
102
RTVSPost2010PropOp32
 70
     1
102
RTVSPost2010Prop33
280
     0
102
RTVSPost2010PropOp33
 70
     1
102
RTVSPost2010Prop34
280
     0
102
RTVSPost2010PropOp34
 70
     1
102
RTVSPost2010Prop35
280
     0
102
RTVSPost2010PropOp35
 70
     1
102
RTVSPost2010Prop36
280
     0
102
RTVSPost2010PropOp36
 70
     1
102
RTVSPost2010Prop37
 90
       50
102
RTVSPost2010PropOp37
 70
     1
102
RTVSPost2010Prop38
140
0.0
102
RTVSPost2010PropOp38
 70
     1
102
RTVSPost2010Prop39
140
1.0
102
RTVSPost2010PropOp39
 70
     1
102
RTVSPost2010Prop40
 90
        0
102
RTVSPost2010PropOp40
 70
     1
102
RTVSPost2010Prop41ColorIndex
 90
       18
102
RTVSPost2010Prop41ColorRGB
 90
        0
102
RTVSPost2010PropOp41
 70
     1
102
RTVSPost2010Prop42
 90
       50
102
RTVSPost2010PropOp42
 70
     1
102
RTVSPost2010Prop43
 90
        3
102
RTVSPost2010PropOp43
 70
     1
102
RTVSPost2010Prop44ColorIndex
 90
        5
102
RTVSPost2010Prop44ColorRGB
 90
      255
102
RTVSPost2010PropOp44
 70
     1
102
RTVSPost2010Prop45
280
     0
102
RTVSPost2010PropOp45
 70
     1
102
RTVSPost2010Prop46
 90
       50
102
RTVSPost2010PropOp46
 70
     1
102
RTVSPost2010Prop47
 90
       50
102
RTVSPost2010PropOp47
 70
     1
102
RTVSPost2010Prop48
 90
       50
102
RTVSPost2010PropOp48
 70
     1
102
RTVSPost2010Prop49
280
     0
102
RTVSPost2010PropOp49
 70
     1
102
RTVSPost2010Prop50
 90
       50
102
RTVSPost2010PropOp50
 70
     1
102
RTVSPost2010Prop51ColorIndex
 90
      256
102
RTVSPost2010Prop51ColorRGB
 90
-16777216
102
RTVSPost2010PropOp51
 70
     0
102
RTVSPost2010Prop52
140
1.0
102
RTVSPost2010PropOp52
 70
     0
102
RTVSPost2010Prop53
 90
        2
102
RTVSPost2010PropOp53
 70
     1
102
RTVSPost2010Prop54
  1
strokes_ogs.tif
102
RTVSPost2010PropOp54
 70
     1
102
RTVSPost2010Prop55
280
     0
102
RTVSPost2010PropOp55
 70
     1
102
RTVSPost2010Prop56
140
1.0
102
RTVSPost2010PropOp56
 70
     1
102
RTVSPost2010Prop57
140
1.0
102
RTVSPost2010PropOp57
 70
     1
102
RTVSPropertyOp0
 70
     0
102
RTVSPropertyOp1
 70
     0
102
RTVSPropertyOp2
 70
     0
102
RTVSPropertyOp3
 70
     0
102
RTVSPropertyOp4
 70
     0
102
RTVSPropertyOp5
 70
     0
102
RTVSPropertyOp6
 70
     0
102
RTVSPropertyOp7
 70
     0
102
RTVSPropertyOp8
 70
     0
102
RTVSPropertyOp9
 70
     0
102
RTVSPropertyOp10
 70
     0
102
RTVSPropertyOp11
 70
     0
102
RTVSPropertyOp12
 70
     0
102
RTVSPropertyOp13
 70
     0
102
RTVSPropertyOp14
 70
     2
102
RTVSPropertyOp15
 70
     0
102
RTVSPropertyOp16
 70
     0
102
RTVSPropertyOp17
 70
     0
102
RTVSPropertyOp18
 70
     0
102
RTVSPropertyOp19
 70
     0
102
RTVSPropertyOp20
 70
     0
102
RTVSPropertyOp21
 70
     0
102
RTVSPropertyOp22
 70
     0
102
RTVSPropertyOp23
 70
     0
102
RTVSPropertyOp24
 70
     0
102
RTVSPropertyOp25
 70
     0
102
RTVSPropertyOp26
 70
     0
102
RTVSPropertyOp27
 70
     0
102
RTVSPropertyOp28
 70
     1
102
RTVSPropertyOp29
 70
     1
102
RTVSPropertyOp30
 70
     1
102
RTVSPropertyOp31
 70
     1
102
RTVSPropertyOp32
 70
     1
102
RTVSPropertyOp33
 70
     1
102
RTVSPropertyOp34
 70
     1
102
RTVSPropertyOp35
 70
     1
102
RTVSPropertyOp36
 70
     1
102
RTVSPropertyOp37
 70
     1
102
RTVSPropertyOp38
 70
     1
102
RTVSPropertyOp39
 70
     1
102
RTVSPropertyOp40
 70
     1
102
RTVSPropertyOp41
 70
     1
102
RTVSPropertyOp42
 70
     1
102
RTVSPropertyOp43
 70
     1
102
RTVSPropertyOp44
 70
     1
102
RTVSPropertyOp45
 70
     1
102
RTVSPropertyOp46
 70
     1
102
RTVSPropertyOp47
 70
     1
102
RTVSPropertyOp48
 70
     1
102
RTVSPropertyOp49
 70
     1
102
RTVSPropertyOp50
 70
     1
102
RTVSPropertyOp51
 70
     0
102
RTVSPropertyOp52
 70
     0
102
RTVSPropertyOp53
 70
     1
102
RTVSPropertyOp54
 70
     1
102
RTVSPropertyOp55
 70
     1
102
RTVSPropertyOp56
 70
     1
102
RTVSPropertyOp57
 70
     1
102
RTVSPropertyOp58
 70
     1
102
RTVSPropertyOp59
 70
     1
102
RTVSPropertyOp60
 70
     1
102
RTVSPropertyOp61
 70
     1
102
RTVSPropertyOp62
 70
     1
  0
XRECORD
  5
F03
102
{ACAD_REACTORS
330
F02
102
}
330
F02
100
AcDbXrecord
280
     1
102
RTVSPost2010Prop28
280
     0
102
RTVSPost2010PropOp28
 70
     1
102
RTVSPost2010Prop29
280
     1
102
RTVSPost2010PropOp29
 70
     1
102
RTVSPost2010Prop30
280
     1
102
RTVSPost2010PropOp30
 70
     1
102
RTVSPost2010Prop31
280
     0
102
RTVSPost2010PropOp31
 70
     1
102
RTVSPost2010Prop32
280
     0
102
RTVSPost2010PropOp32
 70
     1
102
RTVSPost2010Prop33
280
     0
102
RTVSPost2010PropOp33
 70
     1
102
RTVSPost2010Prop34
280
     0
102
RTVSPost2010PropOp34
 70
     1
102
RTVSPost2010Prop35
280
     0
102
RTVSPost2010PropOp35
 70
     1
102
RTVSPost2010Prop36
280
     0
102
RTVSPost2010PropOp36
 70
     1
102
RTVSPost2010Prop37
 90
       50
102
RTVSPost2010PropOp37
 70
     1
102
RTVSPost2010Prop38
140
0.0
102
RTVSPost2010PropOp38
 70
     1
102
RTVSPost2010Prop39
140
1.0
102
RTVSPost2010PropOp39
 70
     1
102
RTVSPost2010Prop40
 90
        0
102
RTVSPost2010PropOp40
 70
     1
102
RTVSPost2010Prop41ColorIndex
 90
       18
102
RTVSPost2010Prop41ColorRGB
 90
        0
102
RTVSPost2010PropOp41
 70
     1
102
RTVSPost2010Prop42
 90
       50
102
RTVSPost2010PropOp42
 70
     1
102
RTVSPost2010Prop43
 90
        3
102
RTVSPost2010PropOp43
 70
     1
102
RTVSPost2010Prop44ColorIndex
 90
        5
102
RTVSPost2010Prop44ColorRGB
 90
      255
102
RTVSPost2010PropOp44
 70
     1
102
RTVSPost2010Prop45
280
     0
102
RTVSPost2010PropOp45
 70
     1
102
RTVSPost2010Prop46
 90
       50
102
RTVSPost2010PropOp46
 70
     1
102
RTVSPost2010Prop47
 90
       50
102
RTVSPost2010PropOp47
 70
     1
102
RTVSPost2010Prop48
 90
       50
102
RTVSPost2010PropOp48
 70
     1
102
RTVSPost2010Prop49
280
     0
102
RTVSPost2010PropOp49
 70
     1
102
RTVSPost2010Prop50
 90
       50
102
RTVSPost2010PropOp50
 70
     1
102
RTVSPost2010Prop51ColorIndex
 90
      256
102
RTVSPost2010Prop51ColorRGB
 90
-16777216
102
RTVSPost2010PropOp51
 70
     0
102
RTVSPost2010Prop52
140
1.0
102
RTVSPost2010PropOp52
 70
     0
102
RTVSPost2010Prop53
 90
        2
102
RTVSPost2010PropOp53
 70
     1
102
RTVSPost2010Prop54
  1
strokes_ogs.tif
102
RTVSPost2010PropOp54
 70
     1
102
RTVSPost2010Prop55
280
     0
102
RTVSPost2010PropOp55
 70
     1
102
RTVSPost2010Prop56
140
1.0
102
RTVSPost2010PropOp56
 70
     1
102
RTVSPost2010Prop57
140
1.0
102
RTVSPost2010PropOp57
 70
     1
102
RTVSPropertyOp0
 70
     1
102
RTVSPropertyOp1
 70
     1
102
RTVSPropertyOp2
 70
     1
102
RTVSPropertyOp3
 70
     1
102
RTVSPropertyOp4
 70
     1
102
RTVSPropertyOp5
 70
     1
102
RTVSPropertyOp6
 70
     1
102
RTVSPropertyOp7
 70
     1
102
RTVSPropertyOp8
 70
     1
102
RTVSPropertyOp9
 70
     1
102
RTVSPropertyOp10
 70
     1
102
RTVSPropertyOp11
 70
     1
102
RTVSPropertyOp12
 70
     1
102
RTVSPropertyOp13
 70
     1
102
RTVSPropertyOp14
 70
     1
102
RTVSPropertyOp15
 70
     1
102
RTVSPropertyOp16
 70
     1
102
RTVSPropertyOp17
 70
     1
102
RTVSPropertyOp18
 70
     1
102
RTVSPropertyOp19
 70
     1
102
RTVSPropertyOp20
 70
     1
102
RTVSPropertyOp21
 70
     1
102
RTVSPropertyOp22
 70
     1
102
RTVSPropertyOp23
 70
     1
102
RTVSPropertyOp24
 70
     1
102
RTVSPropertyOp25
 70
     1
102
RTVSPropertyOp26
 70
     1
102
RTVSPropertyOp27
 70
     1
102
RTVSPropertyOp28
 70
     1
102
RTVSPropertyOp29
 70
     1
102
RTVSPropertyOp30
 70
     1
102
RTVSPropertyOp31
 70
     1
102
RTVSPropertyOp32
 70
     1
102
RTVSPropertyOp33
 70
     1
102
RTVSPropertyOp34
 70
     1
102
RTVSPropertyOp35
 70
     1
102
RTVSPropertyOp36
 70
     1
102
RTVSPropertyOp37
 70
     1
102
RTVSPropertyOp38
 70
     1
102
RTVSPropertyOp39
 70
     1
102
RTVSPropertyOp40
 70
     1
102
RTVSPropertyOp41
 70
     1
102
RTVSPropertyOp42
 70
     1
102
RTVSPropertyOp43
 70
     1
102
RTVSPropertyOp44
 70
     1
102
RTVSPropertyOp45
 70
     1
102
RTVSPropertyOp46
 70
     1
102
RTVSPropertyOp47
 70
     1
102
RTVSPropertyOp48
 70
     1
102
RTVSPropertyOp49
 70
     1
102
RTVSPropertyOp50
 70
     1
102
RTVSPropertyOp51
 70
     0
102
RTVSPropertyOp52
 70
     0
102
RTVSPropertyOp53
 70
     1
102
RTVSPropertyOp54
 70
     1
102
RTVSPropertyOp55
 70
     1
102
RTVSPropertyOp56
 70
     1
102
RTVSPropertyOp57
 70
     1
102
RTVSPropertyOp58
 70
     1
102
RTVSPropertyOp59
 70
     1
102
RTVSPropertyOp60
 70
     1
102
RTVSPropertyOp61
 70
     1
102
RTVSPropertyOp62
 70
     1
  0
XRECORD
  5
F0D
102
{ACAD_REACTORS
330
F0C
102
}
330
F0C
100
AcDbXrecord
280
     1
102
RTVSPost2010Prop28
280
     0
102
RTVSPost2010PropOp28
 70
     1
102
RTVSPost2010Prop29
280
     1
102
RTVSPost2010PropOp29
 70
     1
102
RTVSPost2010Prop30
280
     1
102
RTVSPost2010PropOp30
 70
     1
102
RTVSPost2010Prop31
280
     0
102
RTVSPost2010PropOp31
 70
     1
102
RTVSPost2010Prop32
280
     0
102
RTVSPost2010PropOp32
 70
     1
102
RTVSPost2010Prop33
280
     0
102
RTVSPost2010PropOp33
 70
     1
102
RTVSPost2010Prop34
280
     0
102
RTVSPost2010PropOp34
 70
     1
102
RTVSPost2010Prop35
280
     0
102
RTVSPost2010PropOp35
 70
     1
102
RTVSPost2010Prop36
280
     0
102
RTVSPost2010PropOp36
 70
     1
102
RTVSPost2010Prop37
 90
       50
102
RTVSPost2010PropOp37
 70
     1
102
RTVSPost2010Prop38
140
0.0
102
RTVSPost2010PropOp38
 70
     1
102
RTVSPost2010Prop39
140
1.0
102
RTVSPost2010PropOp39
 70
     1
102
RTVSPost2010Prop40
 90
        0
102
RTVSPost2010PropOp40
 70
     1
102
RTVSPost2010Prop41ColorIndex
 90
       18
102
RTVSPost2010Prop41ColorRGB
 90
        0
102
RTVSPost2010PropOp41
 70
     1
102
RTVSPost2010Prop42
 90
       50
102
RTVSPost2010PropOp42
 70
     1
102
RTVSPost2010Prop43
 90
        3
102
RTVSPost2010PropOp43
 70
     1
102
RTVSPost2010Prop44ColorIndex
 90
        5
102
RTVSPost2010Prop44ColorRGB
 90
      255
102
RTVSPost2010PropOp44
 70
     1
102
RTVSPost2010Prop45
280
     0
102
RTVSPost2010PropOp45
 70
     1
102
RTVSPost2010Prop46
 90
       50
102
RTVSPost2010PropOp46
 70
     1
102
RTVSPost2010Prop47
 90
       50
102
RTVSPost2010PropOp47
 70
     1
102
RTVSPost2010Prop48
 90
       50
102
RTVSPost2010PropOp48
 70
     1
102
RTVSPost2010Prop49
280
     0
102
RTVSPost2010PropOp49
 70
     1
102
RTVSPost2010Prop50
 90
       50
102
RTVSPost2010PropOp50
 70
     1
102
RTVSPost2010Prop51ColorIndex
 90
      256
102
RTVSPost2010Prop51ColorRGB
 90
-16777216
102
RTVSPost2010PropOp51
 70
     0
102
RTVSPost2010Prop52
140
1.0
102
RTVSPost2010PropOp52
 70
     0
102
RTVSPost2010Prop53
 90
        2
102
RTVSPost2010PropOp53
 70
     1
102
RTVSPost2010Prop54
  1
strokes_ogs.tif
102
RTVSPost2010PropOp54
 70
     1
102
RTVSPost2010Prop55
280
     0
102
RTVSPost2010PropOp55
 70
     1
102
RTVSPost2010Prop56
140
1.0
102
RTVSPost2010PropOp56
 70
     1
102
RTVSPost2010Prop57
140
1.0
102
RTVSPost2010PropOp57
 70
     1
102
RTVSPropertyOp0
 70
     0
102
RTVSPropertyOp1
 70
     0
102
RTVSPropertyOp2
 70
     0
102
RTVSPropertyOp3
 70
     0
102
RTVSPropertyOp4
 70
     0
102
RTVSPropertyOp5
 70
     0
102
RTVSPropertyOp6
 70
     0
102
RTVSPropertyOp7
 70
     0
102
RTVSPropertyOp8
 70
     0
102
RTVSPropertyOp9
 70
     0
102
RTVSPropertyOp10
 70
     0
102
RTVSPropertyOp11
 70
     0
102
RTVSPropertyOp12
 70
     0
102
RTVSPropertyOp13
 70
     0
102
RTVSPropertyOp14
 70
     2
102
RTVSPropertyOp15
 70
     0
102
RTVSPropertyOp16
 70
     0
102
RTVSPropertyOp17
 70
     0
102
RTVSPropertyOp18
 70
     0
102
RTVSPropertyOp19
 70
     0
102
RTVSPropertyOp20
 70
     0
102
RTVSPropertyOp21
 70
     0
102
RTVSPropertyOp22
 70
     0
102
RTVSPropertyOp23
 70
     0
102
RTVSPropertyOp24
 70
     0
102
RTVSPropertyOp25
 70
     0
102
RTVSPropertyOp26
 70
     0
102
RTVSPropertyOp27
 70
     0
102
RTVSPropertyOp28
 70
     1
102
RTVSPropertyOp29
 70
     1
102
RTVSPropertyOp30
 70
     1
102
RTVSPropertyOp31
 70
     1
102
RTVSPropertyOp32
 70
     1
102
RTVSPropertyOp33
 70
     1
102
RTVSPropertyOp34
 70
     1
102
RTVSPropertyOp35
 70
     1
102
RTVSPropertyOp36
 70
     1
102
RTVSPropertyOp37
 70
     1
102
RTVSPropertyOp38
 70
     1
102
RTVSPropertyOp39
 70
     1
102
RTVSPropertyOp40
 70
     1
102
RTVSPropertyOp41
 70
     1
102
RTVSPropertyOp42
 70
     1
102
RTVSPropertyOp43
 70
     1
102
RTVSPropertyOp44
 70
     1
102
RTVSPropertyOp45
 70
     1
102
RTVSPropertyOp46
 70
     1
102
RTVSPropertyOp47
 70
     1
102
RTVSPropertyOp48
 70
     1
102
RTVSPropertyOp49
 70
     1
102
RTVSPropertyOp50
 70
     1
102
RTVSPropertyOp51
 70
     0
102
RTVSPropertyOp52
 70
     0
102
RTVSPropertyOp53
 70
     1
102
RTVSPropertyOp54
 70
     1
102
RTVSPropertyOp55
 70
     1
102
RTVSPropertyOp56
 70
     1
102
RTVSPropertyOp57
 70
     1
102
RTVSPropertyOp58
 70
     1
102
RTVSPropertyOp59
 70
     1
102
RTVSPropertyOp60
 70
     1
102
RTVSPropertyOp61
 70
     1
102
RTVSPropertyOp62
 70
     1
  0
XRECORD
  5
EFB
102
{ACAD_REACTORS
330
EFA
102
}
330
EFA
100
AcDbXrecord
280
     1
102
RTVSPost2010Prop28
280
     0
102
RTVSPost2010PropOp28
 70
     1
102
RTVSPost2010Prop29
280
     1
102
RTVSPost2010PropOp29
 70
     1
102
RTVSPost2010Prop30
280
     1
102
RTVSPost2010PropOp30
 70
     1
102
RTVSPost2010Prop31
280
     0
102
RTVSPost2010PropOp31
 70
     1
102
RTVSPost2010Prop32
280
     0
102
RTVSPost2010PropOp32
 70
     1
102
RTVSPost2010Prop33
280
     0
102
RTVSPost2010PropOp33
 70
     1
102
RTVSPost2010Prop34
280
     0
102
RTVSPost2010PropOp34
 70
     1
102
RTVSPost2010Prop35
280
     0
102
RTVSPost2010PropOp35
 70
     1
102
RTVSPost2010Prop36
280
     0
102
RTVSPost2010PropOp36
 70
     1
102
RTVSPost2010Prop37
 90
       50
102
RTVSPost2010PropOp37
 70
     1
102
RTVSPost2010Prop38
140
0.0
102
RTVSPost2010PropOp38
 70
     1
102
RTVSPost2010Prop39
140
1.0
102
RTVSPost2010PropOp39
 70
     1
102
RTVSPost2010Prop40
 90
        0
102
RTVSPost2010PropOp40
 70
     1
102
RTVSPost2010Prop41ColorIndex
 90
       18
102
RTVSPost2010Prop41ColorRGB
 90
        0
102
RTVSPost2010PropOp41
 70
     1
102
RTVSPost2010Prop42
 90
       50
102
RTVSPost2010PropOp42
 70
     1
102
RTVSPost2010Prop43
 90
        3
102
RTVSPost2010PropOp43
 70
     1
102
RTVSPost2010Prop44ColorIndex
 90
        5
102
RTVSPost2010Prop44ColorRGB
 90
      255
102
RTVSPost2010PropOp44
 70
     1
102
RTVSPost2010Prop45
280
     0
102
RTVSPost2010PropOp45
 70
     1
102
RTVSPost2010Prop46
 90
       50
102
RTVSPost2010PropOp46
 70
     1
102
RTVSPost2010Prop47
 90
       50
102
RTVSPost2010PropOp47
 70
     1
102
RTVSPost2010Prop48
 90
       50
102
RTVSPost2010PropOp48
 70
     1
102
RTVSPost2010Prop49
280
     0
102
RTVSPost2010PropOp49
 70
     1
102
RTVSPost2010Prop50
 90
       50
102
RTVSPost2010PropOp50
 70
     1
102
RTVSPost2010Prop51ColorIndex
 90
      256
102
RTVSPost2010Prop51ColorRGB
 90
-16777216
102
RTVSPost2010PropOp51
 70
     0
102
RTVSPost2010Prop52
140
1.0
102
RTVSPost2010PropOp52
 70
     0
102
RTVSPost2010Prop53
 90
        2
102
RTVSPost2010PropOp53
 70
     1
102
RTVSPost2010Prop54
  1
strokes_ogs.tif
102
RTVSPost2010PropOp54
 70
     1
102
RTVSPost2010Prop55
280
     0
102
RTVSPost2010PropOp55
 70
     1
102
RTVSPost2010Prop56
140
1.0
102
RTVSPost2010PropOp56
 70
     1
102
RTVSPost2010Prop57
140
1.0
102
RTVSPost2010PropOp57
 70
     1
102
RTVSPropertyOp0
 70
     1
102
RTVSPropertyOp1
 70
     1
102
RTVSPropertyOp2
 70
     1
102
RTVSPropertyOp3
 70
     1
102
RTVSPropertyOp4
 70
     1
102
RTVSPropertyOp5
 70
     1
102
RTVSPropertyOp6
 70
     1
102
RTVSPropertyOp7
 70
     1
102
RTVSPropertyOp8
 70
     1
102
RTVSPropertyOp9
 70
     1
102
RTVSPropertyOp10
 70
     1
102
RTVSPropertyOp11
 70
     1
102
RTVSPropertyOp12
 70
     1
102
RTVSPropertyOp13
 70
     1
102
RTVSPropertyOp14
 70
     1
102
RTVSPropertyOp15
 70
     1
102
RTVSPropertyOp16
 70
     1
102
RTVSPropertyOp17
 70
     1
102
RTVSPropertyOp18
 70
     1
102
RTVSPropertyOp19
 70
     1
102
RTVSPropertyOp20
 70
     1
102
RTVSPropertyOp21
 70
     1
102
RTVSPropertyOp22
 70
     1
102
RTVSPropertyOp23
 70
     1
102
RTVSPropertyOp24
 70
     1
102
RTVSPropertyOp25
 70
     1
102
RTVSPropertyOp26
 70
     1
102
RTVSPropertyOp27
 70
     1
102
RTVSPropertyOp28
 70
     1
102
RTVSPropertyOp29
 70
     1
102
RTVSPropertyOp30
 70
     1
102
RTVSPropertyOp31
 70
     1
102
RTVSPropertyOp32
 70
     1
102
RTVSPropertyOp33
 70
     1
102
RTVSPropertyOp34
 70
     1
102
RTVSPropertyOp35
 70
     1
102
RTVSPropertyOp36
 70
     1
102
RTVSPropertyOp37
 70
     1
102
RTVSPropertyOp38
 70
     1
102
RTVSPropertyOp39
 70
     1
102
RTVSPropertyOp40
 70
     1
102
RTVSPropertyOp41
 70
     1
102
RTVSPropertyOp42
 70
     1
102
RTVSPropertyOp43
 70
     1
102
RTVSPropertyOp44
 70
     1
102
RTVSPropertyOp45
 70
     1
102
RTVSPropertyOp46
 70
     1
102
RTVSPropertyOp47
 70
     1
102
RTVSPropertyOp48
 70
     1
102
RTVSPropertyOp49
 70
     1
102
RTVSPropertyOp50
 70
     1
102
RTVSPropertyOp51
 70
     0
102
RTVSPropertyOp52
 70
     0
102
RTVSPropertyOp53
 70
     1
102
RTVSPropertyOp54
 70
     1
102
RTVSPropertyOp55
 70
     1
102
RTVSPropertyOp56
 70
     1
102
RTVSPropertyOp57
 70
     1
102
RTVSPropertyOp58
 70
     1
102
RTVSPropertyOp59
 70
     1
102
RTVSPropertyOp60
 70
     1
102
RTVSPropertyOp61
 70
     1
102
RTVSPropertyOp62
 70
     1
  0
XRECORD
  5
F19
102
{ACAD_REACTORS
330
F18
102
}
330
F18
100
AcDbXrecord
280
     1
102
RTVSPost2010Prop28
280
     0
102
RTVSPost2010PropOp28
 70
     1
102
RTVSPost2010Prop29
280
     1
102
RTVSPost2010PropOp29
 70
     1
102
RTVSPost2010Prop30
280
     1
102
RTVSPost2010PropOp30
 70
     1
102
RTVSPost2010Prop31
280
     0
102
RTVSPost2010PropOp31
 70
     1
102
RTVSPost2010Prop32
280
     0
102
RTVSPost2010PropOp32
 70
     1
102
RTVSPost2010Prop33
280
     0
102
RTVSPost2010PropOp33
 70
     1
102
RTVSPost2010Prop34
280
     0
102
RTVSPost2010PropOp34
 70
     1
102
RTVSPost2010Prop35
280
     0
102
RTVSPost2010PropOp35
 70
     1
102
RTVSPost2010Prop36
280
     0
102
RTVSPost2010PropOp36
 70
     1
102
RTVSPost2010Prop37
 90
       50
102
RTVSPost2010PropOp37
 70
     1
102
RTVSPost2010Prop38
140
0.0
102
RTVSPost2010PropOp38
 70
     1
102
RTVSPost2010Prop39
140
1.0
102
RTVSPost2010PropOp39
 70
     1
102
RTVSPost2010Prop40
 90
        0
102
RTVSPost2010PropOp40
 70
     1
102
RTVSPost2010Prop41ColorIndex
 90
       18
102
RTVSPost2010Prop41ColorRGB
 90
        0
102
RTVSPost2010PropOp41
 70
     1
102
RTVSPost2010Prop42
 90
       50
102
RTVSPost2010PropOp42
 70
     1
102
RTVSPost2010Prop43
 90
        3
102
RTVSPost2010PropOp43
 70
     1
102
RTVSPost2010Prop44ColorIndex
 90
        5
102
RTVSPost2010Prop44ColorRGB
 90
      255
102
RTVSPost2010PropOp44
 70
     1
102
RTVSPost2010Prop45
280
     0
102
RTVSPost2010PropOp45
 70
     1
102
RTVSPost2010Prop46
 90
       50
102
RTVSPost2010PropOp46
 70
     1
102
RTVSPost2010Prop47
 90
       50
102
RTVSPost2010PropOp47
 70
     1
102
RTVSPost2010Prop48
 90
       50
102
RTVSPost2010PropOp48
 70
     1
102
RTVSPost2010Prop49
280
     0
102
RTVSPost2010PropOp49
 70
     1
102
RTVSPost2010Prop50
 90
       50
102
RTVSPost2010PropOp50
 70
     1
102
RTVSPost2010Prop51ColorIndex
 90
      256
102
RTVSPost2010Prop51ColorRGB
 90
-16777216
102
RTVSPost2010PropOp51
 70
     0
102
RTVSPost2010Prop52
140
1.0
102
RTVSPost2010PropOp52
 70
     0
102
RTVSPost2010Prop53
 90
        2
102
RTVSPost2010PropOp53
 70
     1
102
RTVSPost2010Prop54
  1
strokes_ogs.tif
102
RTVSPost2010PropOp54
 70
     1
102
RTVSPost2010Prop55
280
     0
102
RTVSPost2010PropOp55
 70
     1
102
RTVSPost2010Prop56
140
1.0
102
RTVSPost2010PropOp56
 70
     1
102
RTVSPost2010Prop57
140
1.0
102
RTVSPost2010PropOp57
 70
     1
102
RTVSPropertyOp0
 70
     1
102
RTVSPropertyOp1
 70
     1
102
RTVSPropertyOp2
 70
     1
102
RTVSPropertyOp3
 70
     1
102
RTVSPropertyOp4
 70
     1
102
RTVSPropertyOp5
 70
     1
102
RTVSPropertyOp6
 70
     1
102
RTVSPropertyOp7
 70
     1
102
RTVSPropertyOp8
 70
     1
102
RTVSPropertyOp9
 70
     1
102
RTVSPropertyOp10
 70
     1
102
RTVSPropertyOp11
 70
     1
102
RTVSPropertyOp12
 70
     1
102
RTVSPropertyOp13
 70
     1
102
RTVSPropertyOp14
 70
     1
102
RTVSPropertyOp15
 70
     1
102
RTVSPropertyOp16
 70
     1
102
RTVSPropertyOp17
 70
     1
102
RTVSPropertyOp18
 70
     1
102
RTVSPropertyOp19
 70
     1
102
RTVSPropertyOp20
 70
     1
102
RTVSPropertyOp21
 70
     1
102
RTVSPropertyOp22
 70
     1
102
RTVSPropertyOp23
 70
     1
102
RTVSPropertyOp24
 70
     1
102
RTVSPropertyOp25
 70
     1
102
RTVSPropertyOp26
 70
     1
102
RTVSPropertyOp27
 70
     1
102
RTVSPropertyOp28
 70
     1
102
RTVSPropertyOp29
 70
     1
102
RTVSPropertyOp30
 70
     1
102
RTVSPropertyOp31
 70
     1
102
RTVSPropertyOp32
 70
     1
102
RTVSPropertyOp33
 70
     1
102
RTVSPropertyOp34
 70
     1
102
RTVSPropertyOp35
 70
     1
102
RTVSPropertyOp36
 70
     1
102
RTVSPropertyOp37
 70
     1
102
RTVSPropertyOp38
 70
     1
102
RTVSPropertyOp39
 70
     1
102
RTVSPropertyOp40
 70
     1
102
RTVSPropertyOp41
 70
     1
102
RTVSPropertyOp42
 70
     1
102
RTVSPropertyOp43
 70
     1
102
RTVSPropertyOp44
 70
     1
102
RTVSPropertyOp45
 70
     1
102
RTVSPropertyOp46
 70
     1
102
RTVSPropertyOp47
 70
     1
102
RTVSPropertyOp48
 70
     1
102
RTVSPropertyOp49
 70
     1
102
RTVSPropertyOp50
 70
     1
102
RTVSPropertyOp51
 70
     0
102
RTVSPropertyOp52
 70
     0
102
RTVSPropertyOp53
 70
     1
102
RTVSPropertyOp54
 70
     1
102
RTVSPropertyOp55
 70
     1
102
RTVSPropertyOp56
 70
     1
102
RTVSPropertyOp57
 70
     1
102
RTVSPropertyOp58
 70
     1
102
RTVSPropertyOp59
 70
     1
102
RTVSPropertyOp60
 70
     1
102
RTVSPropertyOp61
 70
     1
102
RTVSPropertyOp62
 70
     1
  0
XRECORD
  5
F17
102
{ACAD_REACTORS
330
F16
102
}
330
F16
100
AcDbXrecord
280
     1
102
RTVSPost2010Prop28
280
     0
102
RTVSPost2010PropOp28
 70
     1
102
RTVSPost2010Prop29
280
     1
102
RTVSPost2010PropOp29
 70
     1
102
RTVSPost2010Prop30
280
     1
102
RTVSPost2010PropOp30
 70
     1
102
RTVSPost2010Prop31
280
     0
102
RTVSPost2010PropOp31
 70
     1
102
RTVSPost2010Prop32
280
     0
102
RTVSPost2010PropOp32
 70
     1
102
RTVSPost2010Prop33
280
     0
102
RTVSPost2010PropOp33
 70
     1
102
RTVSPost2010Prop34
280
     0
102
RTVSPost2010PropOp34
 70
     1
102
RTVSPost2010Prop35
280
     0
102
RTVSPost2010PropOp35
 70
     1
102
RTVSPost2010Prop36
280
     0
102
RTVSPost2010PropOp36
 70
     1
102
RTVSPost2010Prop37
 90
       50
102
RTVSPost2010PropOp37
 70
     1
102
RTVSPost2010Prop38
140
0.0
102
RTVSPost2010PropOp38
 70
     1
102
RTVSPost2010Prop39
140
1.0
102
RTVSPost2010PropOp39
 70
     1
102
RTVSPost2010Prop40
 90
        0
102
RTVSPost2010PropOp40
 70
     1
102
RTVSPost2010Prop41ColorIndex
 90
       18
102
RTVSPost2010Prop41ColorRGB
 90
        0
102
RTVSPost2010PropOp41
 70
     1
102
RTVSPost2010Prop42
 90
       50
102
RTVSPost2010PropOp42
 70
     1
102
RTVSPost2010Prop43
 90
        3
102
RTVSPost2010PropOp43
 70
     1
102
RTVSPost2010Prop44ColorIndex
 90
        5
102
RTVSPost2010Prop44ColorRGB
 90
      255
102
RTVSPost2010PropOp44
 70
     1
102
RTVSPost2010Prop45
280
     0
102
RTVSPost2010PropOp45
 70
     1
102
RTVSPost2010Prop46
 90
       50
102
RTVSPost2010PropOp46
 70
     1
102
RTVSPost2010Prop47
 90
       50
102
RTVSPost2010PropOp47
 70
     1
102
RTVSPost2010Prop48
 90
       50
102
RTVSPost2010PropOp48
 70
     1
102
RTVSPost2010Prop49
280
     0
102
RTVSPost2010PropOp49
 70
     1
102
RTVSPost2010Prop50
 90
       50
102
RTVSPost2010PropOp50
 70
     1
102
RTVSPost2010Prop51ColorIndex
 90
      256
102
RTVSPost2010Prop51ColorRGB
 90
-16777216
102
RTVSPost2010PropOp51
 70
     0
102
RTVSPost2010Prop52
140
1.0
102
RTVSPost2010PropOp52
 70
     0
102
RTVSPost2010Prop53
 90
        2
102
RTVSPost2010PropOp53
 70
     1
102
RTVSPost2010Prop54
  1
strokes_ogs.tif
102
RTVSPost2010PropOp54
 70
     1
102
RTVSPost2010Prop55
280
     0
102
RTVSPost2010PropOp55
 70
     1
102
RTVSPost2010Prop56
140
1.0
102
RTVSPost2010PropOp56
 70
     1
102
RTVSPost2010Prop57
140
1.0
102
RTVSPost2010PropOp57
 70
     1
102
RTVSPropertyOp0
 70
     1
102
RTVSPropertyOp1
 70
     1
102
RTVSPropertyOp2
 70
     1
102
RTVSPropertyOp3
 70
     1
102
RTVSPropertyOp4
 70
     1
102
RTVSPropertyOp5
 70
     1
102
RTVSPropertyOp6
 70
     1
102
RTVSPropertyOp7
 70
     1
102
RTVSPropertyOp8
 70
     1
102
RTVSPropertyOp9
 70
     1
102
RTVSPropertyOp10
 70
     1
102
RTVSPropertyOp11
 70
     1
102
RTVSPropertyOp12
 70
     1
102
RTVSPropertyOp13
 70
     1
102
RTVSPropertyOp14
 70
     1
102
RTVSPropertyOp15
 70
     1
102
RTVSPropertyOp16
 70
     1
102
RTVSPropertyOp17
 70
     1
102
RTVSPropertyOp18
 70
     1
102
RTVSPropertyOp19
 70
     1
102
RTVSPropertyOp20
 70
     1
102
RTVSPropertyOp21
 70
     1
102
RTVSPropertyOp22
 70
     1
102
RTVSPropertyOp23
 70
     1
102
RTVSPropertyOp24
 70
     1
102
RTVSPropertyOp25
 70
     1
102
RTVSPropertyOp26
 70
     1
102
RTVSPropertyOp27
 70
     1
102
RTVSPropertyOp28
 70
     1
102
RTVSPropertyOp29
 70
     1
102
RTVSPropertyOp30
 70
     1
102
RTVSPropertyOp31
 70
     1
102
RTVSPropertyOp32
 70
     1
102
RTVSPropertyOp33
 70
     1
102
RTVSPropertyOp34
 70
     1
102
RTVSPropertyOp35
 70
     1
102
RTVSPropertyOp36
 70
     1
102
RTVSPropertyOp37
 70
     1
102
RTVSPropertyOp38
 70
     1
102
RTVSPropertyOp39
 70
     1
102
RTVSPropertyOp40
 70
     1
102
RTVSPropertyOp41
 70
     1
102
RTVSPropertyOp42
 70
     1
102
RTVSPropertyOp43
 70
     1
102
RTVSPropertyOp44
 70
     1
102
RTVSPropertyOp45
 70
     1
102
RTVSPropertyOp46
 70
     1
102
RTVSPropertyOp47
 70
     1
102
RTVSPropertyOp48
 70
     1
102
RTVSPropertyOp49
 70
     1
102
RTVSPropertyOp50
 70
     1
102
RTVSPropertyOp51
 70
     0
102
RTVSPropertyOp52
 70
     0
102
RTVSPropertyOp53
 70
     1
102
RTVSPropertyOp54
 70
     1
102
RTVSPropertyOp55
 70
     1
102
RTVSPropertyOp56
 70
     1
102
RTVSPropertyOp57
 70
     1
102
RTVSPropertyOp58
 70
     1
102
RTVSPropertyOp59
 70
     1
102
RTVSPropertyOp60
 70
     1
102
RTVSPropertyOp61
 70
     1
102
RTVSPropertyOp62
 70
     1
  0
XRECORD
  5
F11
102
{ACAD_REACTORS
330
F10
102
}
330
F10
100
AcDbXrecord
280
     1
102
RTVSPost2010Prop28
280
     0
102
RTVSPost2010PropOp28
 70
     1
102
RTVSPost2010Prop29
280
     1
102
RTVSPost2010PropOp29
 70
     1
102
RTVSPost2010Prop30
280
     1
102
RTVSPost2010PropOp30
 70
     1
102
RTVSPost2010Prop31
280
     0
102
RTVSPost2010PropOp31
 70
     1
102
RTVSPost2010Prop32
280
     0
102
RTVSPost2010PropOp32
 70
     1
102
RTVSPost2010Prop33
280
     0
102
RTVSPost2010PropOp33
 70
     1
102
RTVSPost2010Prop34
280
     0
102
RTVSPost2010PropOp34
 70
     1
102
RTVSPost2010Prop35
280
     0
102
RTVSPost2010PropOp35
 70
     1
102
RTVSPost2010Prop36
280
     0
102
RTVSPost2010PropOp36
 70
     1
102
RTVSPost2010Prop37
 90
       50
102
RTVSPost2010PropOp37
 70
     1
102
RTVSPost2010Prop38
140
0.0
102
RTVSPost2010PropOp38
 70
     1
102
RTVSPost2010Prop39
140
1.0
102
RTVSPost2010PropOp39
 70
     1
102
RTVSPost2010Prop40
 90
        0
102
RTVSPost2010PropOp40
 70
     1
102
RTVSPost2010Prop41ColorIndex
 90
       18
102
RTVSPost2010Prop41ColorRGB
 90
        0
102
RTVSPost2010PropOp41
 70
     1
102
RTVSPost2010Prop42
 90
       50
102
RTVSPost2010PropOp42
 70
     1
102
RTVSPost2010Prop43
 90
        3
102
RTVSPost2010PropOp43
 70
     1
102
RTVSPost2010Prop44ColorIndex
 90
        5
102
RTVSPost2010Prop44ColorRGB
 90
      255
102
RTVSPost2010PropOp44
 70
     1
102
RTVSPost2010Prop45
280
     0
102
RTVSPost2010PropOp45
 70
     1
102
RTVSPost2010Prop46
 90
       50
102
RTVSPost2010PropOp46
 70
     1
102
RTVSPost2010Prop47
 90
       50
102
RTVSPost2010PropOp47
 70
     1
102
RTVSPost2010Prop48
 90
       50
102
RTVSPost2010PropOp48
 70
     1
102
RTVSPost2010Prop49
280
     0
102
RTVSPost2010PropOp49
 70
     1
102
RTVSPost2010Prop50
 90
       50
102
RTVSPost2010PropOp50
 70
     1
102
RTVSPost2010Prop51ColorIndex
 90
      256
102
RTVSPost2010Prop51ColorRGB
 90
-16777216
102
RTVSPost2010PropOp51
 70
     0
102
RTVSPost2010Prop52
140
1.0
102
RTVSPost2010PropOp52
 70
     0
102
RTVSPost2010Prop53
 90
        2
102
RTVSPost2010PropOp53
 70
     1
102
RTVSPost2010Prop54
  1
strokes_ogs.tif
102
RTVSPost2010PropOp54
 70
     1
102
RTVSPost2010Prop55
280
     0
102
RTVSPost2010PropOp55
 70
     1
102
RTVSPost2010Prop56
140
1.0
102
RTVSPost2010PropOp56
 70
     1
102
RTVSPost2010Prop57
140
1.0
102
RTVSPost2010PropOp57
 70
     1
102
RTVSPropertyOp0
 70
     1
102
RTVSPropertyOp1
 70
     1
102
RTVSPropertyOp2
 70
     1
102
RTVSPropertyOp3
 70
     1
102
RTVSPropertyOp4
 70
     1
102
RTVSPropertyOp5
 70
     1
102
RTVSPropertyOp6
 70
     1
102
RTVSPropertyOp7
 70
     1
102
RTVSPropertyOp8
 70
     1
102
RTVSPropertyOp9
 70
     1
102
RTVSPropertyOp10
 70
     1
102
RTVSPropertyOp11
 70
     1
102
RTVSPropertyOp12
 70
     1
102
RTVSPropertyOp13
 70
     1
102
RTVSPropertyOp14
 70
     1
102
RTVSPropertyOp15
 70
     1
102
RTVSPropertyOp16
 70
     1
102
RTVSPropertyOp17
 70
     1
102
RTVSPropertyOp18
 70
     1
102
RTVSPropertyOp19
 70
     1
102
RTVSPropertyOp20
 70
     1
102
RTVSPropertyOp21
 70
     1
102
RTVSPropertyOp22
 70
     1
102
RTVSPropertyOp23
 70
     1
102
RTVSPropertyOp24
 70
     1
102
RTVSPropertyOp25
 70
     1
102
RTVSPropertyOp26
 70
     1
102
RTVSPropertyOp27
 70
     1
102
RTVSPropertyOp28
 70
     1
102
RTVSPropertyOp29
 70
     1
102
RTVSPropertyOp30
 70
     1
102
RTVSPropertyOp31
 70
     1
102
RTVSPropertyOp32
 70
     1
102
RTVSPropertyOp33
 70
     1
102
RTVSPropertyOp34
 70
     1
102
RTVSPropertyOp35
 70
     1
102
RTVSPropertyOp36
 70
     1
102
RTVSPropertyOp37
 70
     1
102
RTVSPropertyOp38
 70
     1
102
RTVSPropertyOp39
 70
     1
102
RTVSPropertyOp40
 70
     1
102
RTVSPropertyOp41
 70
     1
102
RTVSPropertyOp42
 70
     1
102
RTVSPropertyOp43
 70
     1
102
RTVSPropertyOp44
 70
     1
102
RTVSPropertyOp45
 70
     1
102
RTVSPropertyOp46
 70
     1
102
RTVSPropertyOp47
 70
     1
102
RTVSPropertyOp48
 70
     1
102
RTVSPropertyOp49
 70
     1
102
RTVSPropertyOp50
 70
     1
102
RTVSPropertyOp51
 70
     0
102
RTVSPropertyOp52
 70
     0
102
RTVSPropertyOp53
 70
     1
102
RTVSPropertyOp54
 70
     1
102
RTVSPropertyOp55
 70
     1
102
RTVSPropertyOp56
 70
     1
102
RTVSPropertyOp57
 70
     1
102
RTVSPropertyOp58
 70
     1
102
RTVSPropertyOp59
 70
     1
102
RTVSPropertyOp60
 70
     1
102
RTVSPropertyOp61
 70
     1
102
RTVSPropertyOp62
 70
     1
  0
XRECORD
  5
F13
102
{ACAD_REACTORS
330
F12
102
}
330
F12
100
AcDbXrecord
280
     1
102
RTVSPost2010Prop28
280
     0
102
RTVSPost2010PropOp28
 70
     1
102
RTVSPost2010Prop29
280
     1
102
RTVSPost2010PropOp29
 70
     1
102
RTVSPost2010Prop30
280
     1
102
RTVSPost2010PropOp30
 70
     1
102
RTVSPost2010Prop31
280
     0
102
RTVSPost2010PropOp31
 70
     1
102
RTVSPost2010Prop32
280
     0
102
RTVSPost2010PropOp32
 70
     1
102
RTVSPost2010Prop33
280
     0
102
RTVSPost2010PropOp33
 70
     1
102
RTVSPost2010Prop34
280
     0
102
RTVSPost2010PropOp34
 70
     1
102
RTVSPost2010Prop35
280
     0
102
RTVSPost2010PropOp35
 70
     1
102
RTVSPost2010Prop36
280
     0
102
RTVSPost2010PropOp36
 70
     1
102
RTVSPost2010Prop37
 90
       50
102
RTVSPost2010PropOp37
 70
     1
102
RTVSPost2010Prop38
140
0.0
102
RTVSPost2010PropOp38
 70
     1
102
RTVSPost2010Prop39
140
1.0
102
RTVSPost2010PropOp39
 70
     1
102
RTVSPost2010Prop40
 90
        0
102
RTVSPost2010PropOp40
 70
     1
102
RTVSPost2010Prop41ColorIndex
 90
       18
102
RTVSPost2010Prop41ColorRGB
 90
        0
102
RTVSPost2010PropOp41
 70
     1
102
RTVSPost2010Prop42
 90
       50
102
RTVSPost2010PropOp42
 70
     1
102
RTVSPost2010Prop43
 90
        3
102
RTVSPost2010PropOp43
 70
     1
102
RTVSPost2010Prop44ColorIndex
 90
        5
102
RTVSPost2010Prop44ColorRGB
 90
      255
102
RTVSPost2010PropOp44
 70
     1
102
RTVSPost2010Prop45
280
     0
102
RTVSPost2010PropOp45
 70
     1
102
RTVSPost2010Prop46
 90
       50
102
RTVSPost2010PropOp46
 70
     1
102
RTVSPost2010Prop47
 90
       50
102
RTVSPost2010PropOp47
 70
     1
102
RTVSPost2010Prop48
 90
       50
102
RTVSPost2010PropOp48
 70
     1
102
RTVSPost2010Prop49
280
     0
102
RTVSPost2010PropOp49
 70
     1
102
RTVSPost2010Prop50
 90
       50
102
RTVSPost2010PropOp50
 70
     1
102
RTVSPost2010Prop51ColorIndex
 90
      256
102
RTVSPost2010Prop51ColorRGB
 90
-16777216
102
RTVSPost2010PropOp51
 70
     0
102
RTVSPost2010Prop52
140
1.0
102
RTVSPost2010PropOp52
 70
     0
102
RTVSPost2010Prop53
 90
        2
102
RTVSPost2010PropOp53
 70
     1
102
RTVSPost2010Prop54
  1
strokes_ogs.tif
102
RTVSPost2010PropOp54
 70
     1
102
RTVSPost2010Prop55
280
     0
102
RTVSPost2010PropOp55
 70
     1
102
RTVSPost2010Prop56
140
1.0
102
RTVSPost2010PropOp56
 70
     1
102
RTVSPost2010Prop57
140
1.0
102
RTVSPost2010PropOp57
 70
     1
102
RTVSPropertyOp0
 70
     1
102
RTVSPropertyOp1
 70
     1
102
RTVSPropertyOp2
 70
     1
102
RTVSPropertyOp3
 70
     1
102
RTVSPropertyOp4
 70
     1
102
RTVSPropertyOp5
 70
     1
102
RTVSPropertyOp6
 70
     1
102
RTVSPropertyOp7
 70
     1
102
RTVSPropertyOp8
 70
     1
102
RTVSPropertyOp9
 70
     1
102
RTVSPropertyOp10
 70
     1
102
RTVSPropertyOp11
 70
     1
102
RTVSPropertyOp12
 70
     1
102
RTVSPropertyOp13
 70
     1
102
RTVSPropertyOp14
 70
     1
102
RTVSPropertyOp15
 70
     1
102
RTVSPropertyOp16
 70
     1
102
RTVSPropertyOp17
 70
     1
102
RTVSPropertyOp18
 70
     1
102
RTVSPropertyOp19
 70
     1
102
RTVSPropertyOp20
 70
     1
102
RTVSPropertyOp21
 70
     1
102
RTVSPropertyOp22
 70
     1
102
RTVSPropertyOp23
 70
     1
102
RTVSPropertyOp24
 70
     1
102
RTVSPropertyOp25
 70
     1
102
RTVSPropertyOp26
 70
     1
102
RTVSPropertyOp27
 70
     1
102
RTVSPropertyOp28
 70
     1
102
RTVSPropertyOp29
 70
     1
102
RTVSPropertyOp30
 70
     1
102
RTVSPropertyOp31
 70
     1
102
RTVSPropertyOp32
 70
     1
102
RTVSPropertyOp33
 70
     1
102
RTVSPropertyOp34
 70
     1
102
RTVSPropertyOp35
 70
     1
102
RTVSPropertyOp36
 70
     1
102
RTVSPropertyOp37
 70
     1
102
RTVSPropertyOp38
 70
     1
102
RTVSPropertyOp39
 70
     1
102
RTVSPropertyOp40
 70
     1
102
RTVSPropertyOp41
 70
     1
102
RTVSPropertyOp42
 70
     1
102
RTVSPropertyOp43
 70
     1
102
RTVSPropertyOp44
 70
     1
102
RTVSPropertyOp45
 70
     1
102
RTVSPropertyOp46
 70
     1
102
RTVSPropertyOp47
 70
     1
102
RTVSPropertyOp48
 70
     1
102
RTVSPropertyOp49
 70
     1
102
RTVSPropertyOp50
 70
     1
102
RTVSPropertyOp51
 70
     0
102
RTVSPropertyOp52
 70
     0
102
RTVSPropertyOp53
 70
     1
102
RTVSPropertyOp54
 70
     1
102
RTVSPropertyOp55
 70
     1
102
RTVSPropertyOp56
 70
     1
102
RTVSPropertyOp57
 70
     1
102
RTVSPropertyOp58
 70
     1
102
RTVSPropertyOp59
 70
     1
102
RTVSPropertyOp60
 70
     1
102
RTVSPropertyOp61
 70
     1
102
RTVSPropertyOp62
 70
     1
  0
XRECORD
  5
F01
102
{ACAD_REACTORS
330
F00
102
}
330
F00
100
AcDbXrecord
280
     1
102
RTVSPost2010Prop28
280
     0
102
RTVSPost2010PropOp28
 70
     1
102
RTVSPost2010Prop29
280
     1
102
RTVSPost2010PropOp29
 70
     1
102
RTVSPost2010Prop30
280
     1
102
RTVSPost2010PropOp30
 70
     1
102
RTVSPost2010Prop31
280
     0
102
RTVSPost2010PropOp31
 70
     1
102
RTVSPost2010Prop32
280
     0
102
RTVSPost2010PropOp32
 70
     1
102
RTVSPost2010Prop33
280
     0
102
RTVSPost2010PropOp33
 70
     1
102
RTVSPost2010Prop34
280
     0
102
RTVSPost2010PropOp34
 70
     1
102
RTVSPost2010Prop35
280
     0
102
RTVSPost2010PropOp35
 70
     1
102
RTVSPost2010Prop36
280
     0
102
RTVSPost2010PropOp36
 70
     1
102
RTVSPost2010Prop37
 90
       50
102
RTVSPost2010PropOp37
 70
     1
102
RTVSPost2010Prop38
140
0.0
102
RTVSPost2010PropOp38
 70
     1
102
RTVSPost2010Prop39
140
1.0
102
RTVSPost2010PropOp39
 70
     1
102
RTVSPost2010Prop40
 90
        0
102
RTVSPost2010PropOp40
 70
     1
102
RTVSPost2010Prop41ColorIndex
 90
       18
102
RTVSPost2010Prop41ColorRGB
 90
        0
102
RTVSPost2010PropOp41
 70
     1
102
RTVSPost2010Prop42
 90
       50
102
RTVSPost2010PropOp42
 70
     1
102
RTVSPost2010Prop43
 90
        3
102
RTVSPost2010PropOp43
 70
     1
102
RTVSPost2010Prop44ColorIndex
 90
        5
102
RTVSPost2010Prop44ColorRGB
 90
      255
102
RTVSPost2010PropOp44
 70
     1
102
RTVSPost2010Prop45
280
     0
102
RTVSPost2010PropOp45
 70
     1
102
RTVSPost2010Prop46
 90
       50
102
RTVSPost2010PropOp46
 70
     1
102
RTVSPost2010Prop47
 90
       50
102
RTVSPost2010PropOp47
 70
     1
102
RTVSPost2010Prop48
 90
       50
102
RTVSPost2010PropOp48
 70
     1
102
RTVSPost2010Prop49
280
     0
102
RTVSPost2010PropOp49
 70
     1
102
RTVSPost2010Prop50
 90
       50
102
RTVSPost2010PropOp50
 70
     1
102
RTVSPost2010Prop51ColorIndex
 90
      256
102
RTVSPost2010Prop51ColorRGB
 90
-16777216
102
RTVSPost2010PropOp51
 70
     0
102
RTVSPost2010Prop52
140
1.0
102
RTVSPost2010PropOp52
 70
     0
102
RTVSPost2010Prop53
 90
        2
102
RTVSPost2010PropOp53
 70
     1
102
RTVSPost2010Prop54
  1
strokes_ogs.tif
102
RTVSPost2010PropOp54
 70
     1
102
RTVSPost2010Prop55
280
     0
102
RTVSPost2010PropOp55
 70
     1
102
RTVSPost2010Prop56
140
1.0
102
RTVSPost2010PropOp56
 70
     1
102
RTVSPost2010Prop57
140
1.0
102
RTVSPost2010PropOp57
 70
     1
102
RTVSPropertyOp0
 70
     1
102
RTVSPropertyOp1
 70
     1
102
RTVSPropertyOp2
 70
     1
102
RTVSPropertyOp3
 70
     1
102
RTVSPropertyOp4
 70
     1
102
RTVSPropertyOp5
 70
     1
102
RTVSPropertyOp6
 70
     1
102
RTVSPropertyOp7
 70
     1
102
RTVSPropertyOp8
 70
     1
102
RTVSPropertyOp9
 70
     1
102
RTVSPropertyOp10
 70
     1
102
RTVSPropertyOp11
 70
     1
102
RTVSPropertyOp12
 70
     1
102
RTVSPropertyOp13
 70
     1
102
RTVSPropertyOp14
 70
     1
102
RTVSPropertyOp15
 70
     1
102
RTVSPropertyOp16
 70
     1
102
RTVSPropertyOp17
 70
     1
102
RTVSPropertyOp18
 70
     1
102
RTVSPropertyOp19
 70
     1
102
RTVSPropertyOp20
 70
     1
102
RTVSPropertyOp21
 70
     1
102
RTVSPropertyOp22
 70
     1
102
RTVSPropertyOp23
 70
     1
102
RTVSPropertyOp24
 70
     1
102
RTVSPropertyOp25
 70
     1
102
RTVSPropertyOp26
 70
     1
102
RTVSPropertyOp27
 70
     1
102
RTVSPropertyOp28
 70
     1
102
RTVSPropertyOp29
 70
     1
102
RTVSPropertyOp30
 70
     1
102
RTVSPropertyOp31
 70
     1
102
RTVSPropertyOp32
 70
     1
102
RTVSPropertyOp33
 70
     1
102
RTVSPropertyOp34
 70
     1
102
RTVSPropertyOp35
 70
     1
102
RTVSPropertyOp36
 70
     1
102
RTVSPropertyOp37
 70
     1
102
RTVSPropertyOp38
 70
     1
102
RTVSPropertyOp39
 70
     1
102
RTVSPropertyOp40
 70
     1
102
RTVSPropertyOp41
 70
     1
102
RTVSPropertyOp42
 70
     1
102
RTVSPropertyOp43
 70
     1
102
RTVSPropertyOp44
 70
     1
102
RTVSPropertyOp45
 70
     1
102
RTVSPropertyOp46
 70
     1
102
RTVSPropertyOp47
 70
     1
102
RTVSPropertyOp48
 70
     1
102
RTVSPropertyOp49
 70
     1
102
RTVSPropertyOp50
 70
     1
102
RTVSPropertyOp51
 70
     0
102
RTVSPropertyOp52
 70
     0
102
RTVSPropertyOp53
 70
     1
102
RTVSPropertyOp54
 70
     1
102
RTVSPropertyOp55
 70
     1
102
RTVSPropertyOp56
 70
     1
102
RTVSPropertyOp57
 70
     1
102
RTVSPropertyOp58
 70
     1
102
RTVSPropertyOp59
 70
     1
102
RTVSPropertyOp60
 70
     1
102
RTVSPropertyOp61
 70
     1
102
RTVSPropertyOp62
 70
     1
  0
XRECORD
  5
EF5
102
{ACAD_REACTORS
330
EF4
102
}
330
EF4
100
AcDbXrecord
280
     1
102
RTVSPost2010Prop28
280
     0
102
RTVSPost2010PropOp28
 70
     1
102
RTVSPost2010Prop29
280
     1
102
RTVSPost2010PropOp29
 70
     1
102
RTVSPost2010Prop30
280
     1
102
RTVSPost2010PropOp30
 70
     1
102
RTVSPost2010Prop31
280
     0
102
RTVSPost2010PropOp31
 70
     1
102
RTVSPost2010Prop32
280
     0
102
RTVSPost2010PropOp32
 70
     1
102
RTVSPost2010Prop33
280
     0
102
RTVSPost2010PropOp33
 70
     1
102
RTVSPost2010Prop34
280
     0
102
RTVSPost2010PropOp34
 70
     1
102
RTVSPost2010Prop35
280
     0
102
RTVSPost2010PropOp35
 70
     1
102
RTVSPost2010Prop36
280
     0
102
RTVSPost2010PropOp36
 70
     1
102
RTVSPost2010Prop37
 90
       50
102
RTVSPost2010PropOp37
 70
     1
102
RTVSPost2010Prop38
140
0.0
102
RTVSPost2010PropOp38
 70
     1
102
RTVSPost2010Prop39
140
1.0
102
RTVSPost2010PropOp39
 70
     1
102
RTVSPost2010Prop40
 90
        0
102
RTVSPost2010PropOp40
 70
     1
102
RTVSPost2010Prop41ColorIndex
 90
       18
102
RTVSPost2010Prop41ColorRGB
 90
        0
102
RTVSPost2010PropOp41
 70
     1
102
RTVSPost2010Prop42
 90
       50
102
RTVSPost2010PropOp42
 70
     1
102
RTVSPost2010Prop43
 90
        3
102
RTVSPost2010PropOp43
 70
     1
102
RTVSPost2010Prop44ColorIndex
 90
        5
102
RTVSPost2010Prop44ColorRGB
 90
      255
102
RTVSPost2010PropOp44
 70
     1
102
RTVSPost2010Prop45
280
     0
102
RTVSPost2010PropOp45
 70
     1
102
RTVSPost2010Prop46
 90
       50
102
RTVSPost2010PropOp46
 70
     1
102
RTVSPost2010Prop47
 90
       50
102
RTVSPost2010PropOp47
 70
     1
102
RTVSPost2010Prop48
 90
       50
102
RTVSPost2010PropOp48
 70
     1
102
RTVSPost2010Prop49
280
     0
102
RTVSPost2010PropOp49
 70
     1
102
RTVSPost2010Prop50
 90
       50
102
RTVSPost2010PropOp50
 70
     1
102
RTVSPost2010Prop51ColorIndex
 90
      256
102
RTVSPost2010Prop51ColorRGB
 90
-16777216
102
RTVSPost2010PropOp51
 70
     0
102
RTVSPost2010Prop52
140
1.0
102
RTVSPost2010PropOp52
 70
     0
102
RTVSPost2010Prop53
 90
        2
102
RTVSPost2010PropOp53
 70
     1
102
RTVSPost2010Prop54
  1
strokes_ogs.tif
102
RTVSPost2010PropOp54
 70
     1
102
RTVSPost2010Prop55
280
     0
102
RTVSPost2010PropOp55
 70
     1
102
RTVSPost2010Prop56
140
1.0
102
RTVSPost2010PropOp56
 70
     1
102
RTVSPost2010Prop57
140
1.0
102
RTVSPost2010PropOp57
 70
     1
102
RTVSPropertyOp0
 70
     1
102
RTVSPropertyOp1
 70
     1
102
RTVSPropertyOp2
 70
     1
102
RTVSPropertyOp3
 70
     1
102
RTVSPropertyOp4
 70
     1
102
RTVSPropertyOp5
 70
     1
102
RTVSPropertyOp6
 70
     1
102
RTVSPropertyOp7
 70
     1
102
RTVSPropertyOp8
 70
     1
102
RTVSPropertyOp9
 70
     1
102
RTVSPropertyOp10
 70
     1
102
RTVSPropertyOp11
 70
     1
102
RTVSPropertyOp12
 70
     1
102
RTVSPropertyOp13
 70
     1
102
RTVSPropertyOp14
 70
     1
102
RTVSPropertyOp15
 70
     1
102
RTVSPropertyOp16
 70
     1
102
RTVSPropertyOp17
 70
     1
102
RTVSPropertyOp18
 70
     1
102
RTVSPropertyOp19
 70
     1
102
RTVSPropertyOp20
 70
     1
102
RTVSPropertyOp21
 70
     1
102
RTVSPropertyOp22
 70
     1
102
RTVSPropertyOp23
 70
     1
102
RTVSPropertyOp24
 70
     1
102
RTVSPropertyOp25
 70
     1
102
RTVSPropertyOp26
 70
     1
102
RTVSPropertyOp27
 70
     1
102
RTVSPropertyOp28
 70
     1
102
RTVSPropertyOp29
 70
     1
102
RTVSPropertyOp30
 70
     1
102
RTVSPropertyOp31
 70
     1
102
RTVSPropertyOp32
 70
     1
102
RTVSPropertyOp33
 70
     1
102
RTVSPropertyOp34
 70
     1
102
RTVSPropertyOp35
 70
     1
102
RTVSPropertyOp36
 70
     1
102
RTVSPropertyOp37
 70
     1
102
RTVSPropertyOp38
 70
     1
102
RTVSPropertyOp39
 70
     1
102
RTVSPropertyOp40
 70
     1
102
RTVSPropertyOp41
 70
     1
102
RTVSPropertyOp42
 70
     1
102
RTVSPropertyOp43
 70
     1
102
RTVSPropertyOp44
 70
     1
102
RTVSPropertyOp45
 70
     1
102
RTVSPropertyOp46
 70
     1
102
RTVSPropertyOp47
 70
     1
102
RTVSPropertyOp48
 70
     1
102
RTVSPropertyOp49
 70
     1
102
RTVSPropertyOp50
 70
     1
102
RTVSPropertyOp51
 70
     0
102
RTVSPropertyOp52
 70
     0
102
RTVSPropertyOp53
 70
     1
102
RTVSPropertyOp54
 70
     1
102
RTVSPropertyOp55
 70
     1
102
RTVSPropertyOp56
 70
     1
102
RTVSPropertyOp57
 70
     1
102
RTVSPropertyOp58
 70
     1
102
RTVSPropertyOp59
 70
     1
102
RTVSPropertyOp60
 70
     1
102
RTVSPropertyOp61
 70
     1
102
RTVSPropertyOp62
 70
     1
  0
XRECORD
  5
F15
102
{ACAD_REACTORS
330
F14
102
}
330
F14
100
AcDbXrecord
280
     1
102
RTVSPost2010Prop28
280
     0
102
RTVSPost2010PropOp28
 70
     1
102
RTVSPost2010Prop29
280
     1
102
RTVSPost2010PropOp29
 70
     1
102
RTVSPost2010Prop30
280
     1
102
RTVSPost2010PropOp30
 70
     1
102
RTVSPost2010Prop31
280
     0
102
RTVSPost2010PropOp31
 70
     1
102
RTVSPost2010Prop32
280
     0
102
RTVSPost2010PropOp32
 70
     1
102
RTVSPost2010Prop33
280
     0
102
RTVSPost2010PropOp33
 70
     1
102
RTVSPost2010Prop34
280
     0
102
RTVSPost2010PropOp34
 70
     1
102
RTVSPost2010Prop35
280
     0
102
RTVSPost2010PropOp35
 70
     1
102
RTVSPost2010Prop36
280
     0
102
RTVSPost2010PropOp36
 70
     1
102
RTVSPost2010Prop37
 90
       50
102
RTVSPost2010PropOp37
 70
     1
102
RTVSPost2010Prop38
140
0.0
102
RTVSPost2010PropOp38
 70
     1
102
RTVSPost2010Prop39
140
1.0
102
RTVSPost2010PropOp39
 70
     1
102
RTVSPost2010Prop40
 90
        0
102
RTVSPost2010PropOp40
 70
     1
102
RTVSPost2010Prop41ColorIndex
 90
       18
102
RTVSPost2010Prop41ColorRGB
 90
        0
102
RTVSPost2010PropOp41
 70
     1
102
RTVSPost2010Prop42
 90
       50
102
RTVSPost2010PropOp42
 70
     1
102
RTVSPost2010Prop43
 90
        3
102
RTVSPost2010PropOp43
 70
     1
102
RTVSPost2010Prop44ColorIndex
 90
        5
102
RTVSPost2010Prop44ColorRGB
 90
      255
102
RTVSPost2010PropOp44
 70
     1
102
RTVSPost2010Prop45
280
     0
102
RTVSPost2010PropOp45
 70
     1
102
RTVSPost2010Prop46
 90
       50
102
RTVSPost2010PropOp46
 70
     1
102
RTVSPost2010Prop47
 90
       50
102
RTVSPost2010PropOp47
 70
     1
102
RTVSPost2010Prop48
 90
       50
102
RTVSPost2010PropOp48
 70
     1
102
RTVSPost2010Prop49
280
     0
102
RTVSPost2010PropOp49
 70
     1
102
RTVSPost2010Prop50
 90
       50
102
RTVSPost2010PropOp50
 70
     1
102
RTVSPost2010Prop51ColorIndex
 90
      256
102
RTVSPost2010Prop51ColorRGB
 90
-16777216
102
RTVSPost2010PropOp51
 70
     0
102
RTVSPost2010Prop52
140
1.0
102
RTVSPost2010PropOp52
 70
     0
102
RTVSPost2010Prop53
 90
        2
102
RTVSPost2010PropOp53
 70
     1
102
RTVSPost2010Prop54
  1
strokes_ogs.tif
102
RTVSPost2010PropOp54
 70
     1
102
RTVSPost2010Prop55
280
     0
102
RTVSPost2010PropOp55
 70
     1
102
RTVSPost2010Prop56
140
1.0
102
RTVSPost2010PropOp56
 70
     1
102
RTVSPost2010Prop57
140
1.0
102
RTVSPost2010PropOp57
 70
     1
102
RTVSPropertyOp0
 70
     1
102
RTVSPropertyOp1
 70
     1
102
RTVSPropertyOp2
 70
     1
102
RTVSPropertyOp3
 70
     1
102
RTVSPropertyOp4
 70
     1
102
RTVSPropertyOp5
 70
     1
102
RTVSPropertyOp6
 70
     1
102
RTVSPropertyOp7
 70
     1
102
RTVSPropertyOp8
 70
     1
102
RTVSPropertyOp9
 70
     1
102
RTVSPropertyOp10
 70
     1
102
RTVSPropertyOp11
 70
     1
102
RTVSPropertyOp12
 70
     1
102
RTVSPropertyOp13
 70
     1
102
RTVSPropertyOp14
 70
     1
102
RTVSPropertyOp15
 70
     1
102
RTVSPropertyOp16
 70
     1
102
RTVSPropertyOp17
 70
     1
102
RTVSPropertyOp18
 70
     1
102
RTVSPropertyOp19
 70
     1
102
RTVSPropertyOp20
 70
     1
102
RTVSPropertyOp21
 70
     1
102
RTVSPropertyOp22
 70
     1
102
RTVSPropertyOp23
 70
     1
102
RTVSPropertyOp24
 70
     1
102
RTVSPropertyOp25
 70
     1
102
RTVSPropertyOp26
 70
     1
102
RTVSPropertyOp27
 70
     1
102
RTVSPropertyOp28
 70
     1
102
RTVSPropertyOp29
 70
     1
102
RTVSPropertyOp30
 70
     1
102
RTVSPropertyOp31
 70
     1
102
RTVSPropertyOp32
 70
     1
102
RTVSPropertyOp33
 70
     1
102
RTVSPropertyOp34
 70
     1
102
RTVSPropertyOp35
 70
     1
102
RTVSPropertyOp36
 70
     1
102
RTVSPropertyOp37
 70
     1
102
RTVSPropertyOp38
 70
     1
102
RTVSPropertyOp39
 70
     1
102
RTVSPropertyOp40
 70
     1
102
RTVSPropertyOp41
 70
     1
102
RTVSPropertyOp42
 70
     1
102
RTVSPropertyOp43
 70
     1
102
RTVSPropertyOp44
 70
     1
102
RTVSPropertyOp45
 70
     1
102
RTVSPropertyOp46
 70
     1
102
RTVSPropertyOp47
 70
     1
102
RTVSPropertyOp48
 70
     1
102
RTVSPropertyOp49
 70
     1
102
RTVSPropertyOp50
 70
     1
102
RTVSPropertyOp51
 70
     0
102
RTVSPropertyOp52
 70
     0
102
RTVSPropertyOp53
 70
     1
102
RTVSPropertyOp54
 70
     1
102
RTVSPropertyOp55
 70
     1
102
RTVSPropertyOp56
 70
     1
102
RTVSPropertyOp57
 70
     1
102
RTVSPropertyOp58
 70
     1
102
RTVSPropertyOp59
 70
     1
102
RTVSPropertyOp60
 70
     1
102
RTVSPropertyOp61
 70
     1
102
RTVSPropertyOp62
 70
     1
  0
ENDSEC
  0
EOF
